  0
SECTION
  2
HEADER
  9
$ACADVER
  1
AC1015
  9
$ACADMAINTVER
 70
    20
  9
$DWGCODEPAGE
  3
ANSI_1252
  9
$INSBASE
 10
0.0
 20
0.0
 30
0.0
  9
$EXTMIN
 10
1.000000000000000E+20
 20
1.000000000000000E+20
 30
1.000000000000000E+20
  9
$EXTMAX
 10
-1.000000000000000E+20
 20
-1.000000000000000E+20
 30
-1.000000000000000E+20
  9
$LIMMIN
 10
0
 20
0
  9
$LIMMAX
 10
420
 20
297
  9
$ORTHOMODE
 70
     0
  9
$REGENMODE
 70
     1
  9
$FILLMODE
 70
     1
  9
$QTEXTMODE
 70
     0
  9
$MIRRTEXT
 70
     0
  9
$LTSCALE
 40
1
  9
$ATTMODE
 70
     1
  9
$TEXTSIZE
 40
5
  9
$TRACEWID
 40
1.0
  9
$TEXTSTYLE
  7
Standard
  9
$CLAYER
  8
Sichtbare Körperkanten
  9
$CELTYPE
  6
ByLayer
  9
$CECOLOR
 62
   256
  9
$CELTSCALE
 40
1.0
  9
$DISPSILH
 70
     0
  9
$DIMSCALE
 40
1
  9
$DIMASZ
 40
2.5
  9
$DIMEXO
 40
0.625
  9
$DIMDLI
 40
3.75
  9
$DIMRND
 40
0
  9
$DIMDLE
 40
0
  9
$DIMEXE
 40
1.25
  9
$DIMTP
 40
0
  9
$DIMTM
 40
0
  9
$DIMTXT
 40
2.5
  9
$DIMCEN
 40
2.5
  9
$DIMTSZ
 40
0
  9
$DIMTOL
 70
     0
  9
$DIMLIM
 70
     0
  9
$DIMTIH
 70
     0
  9
$DIMTOH
 70
     0
  9
$DIMSE1
 70
     0
  9
$DIMSE2
 70
     0
  9
$DIMTAD
 70
     1
  9
$DIMZIN
 70
     8
  9
$DIMBLK
  1

  9
$DIMASO
 70
     1
  9
$DIMSHO
 70
     1
  9
$DIMPOST
  1
<>
  9
$DIMAPOST
  1
[]
  9
$DIMALT
 70
     0
  9
$DIMALTD
 70
     3
  9
$DIMALTF
 40
0.03937007874016
  9
$DIMLFAC
 40
1
  9
$DIMTOFL
 70
     1
  9
$DIMTVP
 40
0
  9
$DIMTIX
 70
     0
  9
$DIMSOXD
 70
     0
  9
$DIMSAH
 70
     0
  9
$DIMBLK1
  1

  9
$DIMBLK2
  1

  9
$DIMSTYLE
  2
ISO-25
  9
$DIMCLRD
 70
     0
  9
$DIMCLRE
 70
     0
  9
$DIMCLRT
 70
     0
  9
$DIMTFAC
 40
1
  9
$DIMGAP
 40
0.625
  9
$DIMJUST
 70
     0
  9
$DIMSD1
 70
     0
  9
$DIMSD2
 70
     0
  9
$DIMTOLJ
 70
     0
  9
$DIMTZIN
 70
     0
  9
$DIMALTZ
 70
     0
  9
$DIMALTTZ
 70
     0
  9
$DIMUPT
 70
     0
  9
$DIMDEC
 70
     2
  9
$DIMTDEC
 70
     2
  9
$DIMALTU
 70
     2
  9
$DIMALTTD
 70
     3
  9
$DIMTXSTY
  7
Standard
  9
$DIMAUNIT
 70
     0
  9
$DIMADEC
 70
     0
  9
$DIMALTRND
 40
0
  9
$DIMAZIN
 70
     0
  9
$DIMDSEP
 70
    44
  9
$DIMATFIT
 70
     3
  9
$DIMFRAC
 70
     0
  9
$DIMLDRBLK
  1

  9
$DIMLUNIT
 70
     2
  9
$DIMLWD
 70
    -2
  9
$DIMLWE
 70
    -2
  9
$DIMTMOVE
 70
     0
  9
$LUNITS
 70
     2
  9
$LUPREC
 70
     4
  9
$SKETCHINC
 40
1.0
  9
$FILLETRAD
 40
10
  9
$AUNITS
 70
     0
  9
$AUPREC
 70
     0
  9
$MENU
  1
.
  9
$ELEVATION
 40
0.0
  9
$PELEVATION
 40
0.0
  9
$THICKNESS
 40
0.0
  9
$LIMCHECK
 70
     0
  9
$CHAMFERA
 40
10
  9
$CHAMFERB
 40
10
  9
$CHAMFERC
 40
20
  9
$CHAMFERD
 40
0
  9
$SKPOLY
 70
     0
  9
$TDCREATE
 40
2455890.587745729
  9
$TDUCREATE
 40
2455890.546079062
  9
$TDUPDATE
 40
2455890.587938577
  9
$TDUUPDATE
 40
2455890.546271910
  9
$TDINDWG
 40
0.0001929630
  9
$TDUSRTIMER
 40
0.0001929630
  9
$USRTIMER
 70
     1
  9
$ANGBASE
 50
0.0
  9
$ANGDIR
 70
     0
  9
$PDMODE
 70
     0
  9
$PDSIZE
 40
5
  9
$PLINEWID
 40
0.0
  9
$SPLFRAME
 70
     0
  9
$SPLINETYPE
 70
     6
  9
$SPLINESEGS
 70
     8
  9
$HANDSEED
  5
15D2
  9
$SURFTAB1
 70
     6
  9
$SURFTAB2
 70
     6
  9
$SURFTYPE
 70
     6
  9
$SURFU
 70
     6
  9
$SURFV
 70
     6
  9
$UCSBASE
  2

  9
$UCSNAME
  2

  9
$UCSORG
 10
0.0
 20
0.0
 30
0.0
  9
$UCSXDIR
 10
1.0
 20
0.0
 30
0.0
  9
$UCSYDIR
 10
0.0
 20
1.0
 30
0.0
  9
$UCSORTHOREF
  2

  9
$UCSORTHOVIEW
 70
     0
  9
$UCSORGTOP
 10
0.0
 20
0.0
 30
0.0
  9
$UCSORGBOTTOM
 10
0.0
 20
0.0
 30
0.0
  9
$UCSORGLEFT
 10
0.0
 20
0.0
 30
0.0
  9
$UCSORGRIGHT
 10
0.0
 20
0.0
 30
0.0
  9
$UCSORGFRONT
 10
0.0
 20
0.0
 30
0.0
  9
$UCSORGBACK
 10
0.0
 20
0.0
 30
0.0
  9
$PUCSBASE
  2

  9
$PUCSNAME
  2

  9
$PUCSORG
 10
0.0
 20
0.0
 30
0.0
  9
$PUCSXDIR
 10
1.0
 20
0.0
 30
0.0
  9
$PUCSYDIR
 10
0.0
 20
1.0
 30
0.0
  9
$PUCSORTHOREF
  2

  9
$PUCSORTHOVIEW
 70
     0
  9
$PUCSORGTOP
 10
0.0
 20
0.0
 30
0.0
  9
$PUCSORGBOTTOM
 10
0.0
 20
0.0
 30
0.0
  9
$PUCSORGLEFT
 10
0.0
 20
0.0
 30
0.0
  9
$PUCSORGRIGHT
 10
0.0
 20
0.0
 30
0.0
  9
$PUCSORGFRONT
 10
0.0
 20
0.0
 30
0.0
  9
$PUCSORGBACK
 10
0.0
 20
0.0
 30
0.0
  9
$USERI1
 70
     0
  9
$USERI2
 70
     0
  9
$USERI3
 70
     0
  9
$USERI4
 70
     0
  9
$USERI5
 70
     0
  9
$USERR1
 40
0.0
  9
$USERR2
 40
0.0
  9
$USERR3
 40
0.0
  9
$USERR4
 40
0.0
  9
$USERR5
 40
0.0
  9
$WORLDVIEW
 70
     1
  9
$SHADEDGE
 70
     3
  9
$SHADEDIF
 70
    70
  9
$TILEMODE
 70
     1
  9
$MAXACTVP
 70
    64
  9
$PINSBASE
 10
0.0
 20
0.0
 30
0.0
  9
$PLIMCHECK
 70
     0
  9
$PEXTMIN
 10
0.0
 20
0.0
 30
0.0
  9
$PEXTMAX
 10
0.0
 20
0.0
 30
0.0
  9
$PLIMMIN
 10
0.0
 20
0.0
  9
$PLIMMAX
 10
12.0
 20
9.0
  9
$UNITMODE
 70
     0
  9
$VISRETAIN
 70
     1
  9
$PLINEGEN
 70
     0
  9
$PSLTSCALE
 70
     1
  9
$TREEDEPTH
 70
  3020
  9
$CMLSTYLE
  2
Standard
  9
$CMLJUST
 70
     0
  9
$CMLSCALE
 40
20.0
  9
$PROXYGRAPHICS
 70
     1
  9
$MEASUREMENT
 70
     1
  9
$CELWEIGHT
370
    -1
  9
$ENDCAPS
280
     0
  9
$JOINSTYLE
280
     0
  9
$LWDISPLAY
290
     0
  9
$INSUNITS
 70
     4
  9
$HYPERLINKBASE
  1

  9
$STYLESHEET
  1

  9
$XEDIT
290
     1
  9
$CEPSNTYPE
380
     0
  9
$PSTYLEMODE
290
     1
  9
$EXTNAMES
290
     1
  9
$PSVPSCALE
 40
0.0
  9
$OLESTARTUP
290
     0
  9
$HANDSEED
  5
15D2
  0
ENDSEC
  0
SECTION
  2
CLASSES
  0
CLASS
  1
ACDBDICTIONARYWDFLT
  2
AcDbDictionaryWithDefault
  3
ObjectDBX Classes
 90
        0
280
     0
281
     0
  0
CLASS
  1
DICTIONARYVAR
  2
AcDbDictionaryVar
  3
ObjectDBX Classes
 90
        0
280
     0
281
     0
  0
CLASS
  1
ACDBPLACEHOLDER
  2
AcDbPlaceHolder
  3
ObjectDBX Classes
 90
        0
280
     0
281
     0
  0
CLASS
  1
LAYOUT
  2
AcDbLayout
  3
ObjectDBX Classes
 90
        0
280
     0
281
     0
  0
ENDSEC
  0
SECTION
  2
TABLES
  0
TABLE
  2
VPORT
  5
8
330
0
100
AcDbSymbolTable
 70
     1
  0
VPORT
  5
B1
330
8
100
AcDbSymbolTableRecord
100
AcDbViewportTableRecord
  2
*Active
 70
     0
 10
0
 20
0
 11
1
 21
1
 12
139.32087341604125
 22
81.70947340704213
 13
0.0
 23
0.0
 14
1
 24
1
 15
1
 25
1
 16
0.0
 26
0.0
 36
1.0
 17
0.0
 27
0.0
 37
0.0
 40
206.76681564944138
 41
1.6
 42
50.0
 43
0.0
 44
0.0
 50
0.0
 51
0.0
 71
     0
 72
   100
 73
     1
 74
     1
 75
     1
 76
     1
 77
     0
 78
     0
281
     0
 65
     1
110
0.0
120
0.0
130
0.0
111
1.0
121
0.0
131
0.0
112
0.0
122
1.0
132
0.0
 79
     0
146
0.0
  0
ENDTAB
  0
TABLE
  2
LTYPE
  5
5
330
0
100
AcDbSymbolTable
 70
     3
  0
LTYPE
  5
14
330
5
100
AcDbSymbolTableRecord
100
AcDbLinetypeTableRecord
  2
ByBlock
 70
     0
  3

 72
    65
 73
     0
 40
0.0
  0
LTYPE
  5
15
330
5
100
AcDbSymbolTableRecord
100
AcDbLinetypeTableRecord
  2
ByLayer
 70
     0
  3

 72
    65
 73
     0
 40
0.0
  0
LTYPE
  5
16
330
5
100
AcDbSymbolTableRecord
100
AcDbLinetypeTableRecord
  2
Continuous
 70
     0
  3
Solid line
 72
    65
 73
     0
 40
0.0
  0
LTYPE
  5
88
330
5
100
AcDbSymbolTableRecord
100
AcDbLinetypeTableRecord
  2
DashDot
 70
     0
  3
Dashdot _._._._._._._._._._._._._._._
 72
    65
 73
     4
 40
12.699999999999998
 49
6.349999999999999
 74
     0
 49
-3.174999999999999
 74
     0
 49
0
 74
     0
 49
-3.174999999999999
 74
     0
  0
LTYPE
  5
89
330
5
100
AcDbSymbolTableRecord
100
AcDbLinetypeTableRecord
  2
Dashed
 70
     0
  3
Dashed _ _ _ _ _ _ _ _ _ _ _ _ _ _ _
 72
    65
 73
     2
 40
9.524999999999999
 49
6.349999999999999
 74
     0
 49
-3.174999999999999
 74
     0
  0
ENDTAB
  0
TABLE
  2
LAYER
  5
2
330
0
100
AcDbSymbolTable
 70
     6
  0
LAYER
  5
10
330
2
100
AcDbSymbolTableRecord
100
AcDbLayerTableRecord
  2
0
 70
     0
 62
     7
  6
Continuous
370
    -3
390
15AE
  0
LAYER
  5
C9
330
2
100
AcDbSymbolTableRecord
100
AcDbLayerTableRecord
  2
Sichtbare Körperkanten
 70
     0
 62
     7
  6
Continuous
370
    50
390
15AE
  0
LAYER
  5
CA
330
2
100
AcDbSymbolTableRecord
100
AcDbLayerTableRecord
  2
Verdeckte Körperkante
 70
     0
 62
     7
  6
Dashed
370
    25
390
15AE
  0
LAYER
  5
CB
330
2
100
AcDbSymbolTableRecord
100
AcDbLayerTableRecord
  2
Mittellinie
 70
     0
 62
     7
  6
DashDot
370
    25
390
15AE
  0
LAYER
  5
CC
330
2
100
AcDbSymbolTableRecord
100
AcDbLayerTableRecord
  2
Hilfslinie
 70
     0
 62
     10
  6
Continuous
370
    25
390
15AE
  0
LAYER
  5
D2
330
2
100
AcDbSymbolTableRecord
100
AcDbLayerTableRecord
  2
Bemassung
 70
     0
 62
     7
  6
Continuous
370
    25
390
15AE
  0
ENDTAB
  0
TABLE
  2
STYLE
  5
3
330
0
100
AcDbSymbolTable
 70
     1
  0
STYLE
  5
11
330
3
100
AcDbSymbolTableRecord
100
AcDbTextStyleTableRecord
  2
Standard
 70
     0
 40
0.0
 41
1
 50
0
 71
     0
 42
2.5
  3
txt.shx
  4

  0
ENDTAB
  0
TABLE
  2
VIEW
  5
6
330
0
100
AcDbSymbolTable
 70
     0
  0
ENDTAB
  0
TABLE
  2
UCS
  5
7
330
0
100
AcDbSymbolTable
 70
     0
  0
ENDTAB
  0
TABLE
  2
APPID
  5
9
330
0
100
AcDbSymbolTable
 70
     1
  0
APPID
  5
12
330
9
100
AcDbSymbolTableRecord
100
AcDbRegAppTableRecord
  2
ACAD
 70
     0
  0
ENDTAB
  0
TABLE
  2
DIMSTYLE
  5
A
330
0
100
AcDbSymbolTable
 70
     1
100
AcDbDimStyleTable
 71
     0
  0
DIMSTYLE
105
27
330
A
100
AcDbSymbolTableRecord
100
AcDbDimStyleTableRecord
  2
ISO-25
 70
     0
  3
<>
  4
[]
 40
1
 41
2.5
 42
0.625
 43
3.75
 44
1.25
 45
0
 46
0
 47
0
 48
0
 71
          0
 72
          0
 73
          0
 74
          0
 75
          0
 76
          0
 77
     1
 78
     8
 79
     0
140
2.5
141
2.5
142
0
143
0.03937007874016
144
1
145
0
146
1
147
0.625
148
0
170
          0
171
     3
172
          1
173
     0
174
          0
175
          0
176
     0
177
     0
178
     0
179
     0
271
     2
272
     2
273
     2
274
     3
275
     0
276
     0
277
     2
278
     44
279
     0
280
     0
281
          0
282
          0
283
     0
284
     0
285
     0
286
     0
287
     3
288
     0
289
     3
340
11
371
-2
372
-2
  0
ENDTAB
  0
TABLE
  2
BLOCK_RECORD
  5
1
330
0
100
AcDbSymbolTable
 70
     32
  0
BLOCK_RECORD
  5
1F
330
1
100
AcDbSymbolTableRecord
100
AcDbBlockTableRecord
  2
*Model_Space
340
22
  0
BLOCK_RECORD
  5
50
330
1
100
AcDbSymbolTableRecord
100
AcDbBlockTableRecord
  2
*Paper_Space
340
51
  0
BLOCK_RECORD
  5
55
330
1
100
AcDbSymbolTableRecord
100
AcDbBlockTableRecord
  2
*Paper_Space0
340
56
  0
BLOCK_RECORD
  5
D4
330
1
100
AcDbSymbolTableRecord
100
AcDbBlockTableRecord
  2
*D211
  0
BLOCK_RECORD
  5
137
330
1
100
AcDbSymbolTableRecord
100
AcDbBlockTableRecord
  2
*D232
  0
BLOCK_RECORD
  5
14B
330
1
100
AcDbSymbolTableRecord
100
AcDbBlockTableRecord
  2
*D253
  0
BLOCK_RECORD
  5
20D
330
1
100
AcDbSymbolTableRecord
100
AcDbBlockTableRecord
  2
*D524
  0
BLOCK_RECORD
  5
24C
330
1
100
AcDbSymbolTableRecord
100
AcDbBlockTableRecord
  2
*D587
  0
BLOCK_RECORD
  5
3E9
330
1
100
AcDbSymbolTableRecord
100
AcDbBlockTableRecord
  2
*D545
  0
BLOCK_RECORD
  5
3FD
330
1
100
AcDbSymbolTableRecord
100
AcDbBlockTableRecord
  2
*D566
  0
BLOCK_RECORD
  5
411
330
1
100
AcDbSymbolTableRecord
100
AcDbBlockTableRecord
  2
*D608
  0
BLOCK_RECORD
  5
425
330
1
100
AcDbSymbolTableRecord
100
AcDbBlockTableRecord
  2
*D629
  0
BLOCK_RECORD
  5
4B0
330
1
100
AcDbSymbolTableRecord
100
AcDbBlockTableRecord
  2
*D503
  0
BLOCK_RECORD
  5
4D9
330
1
100
AcDbSymbolTableRecord
100
AcDbBlockTableRecord
  2
*D1240
  0
BLOCK_RECORD
  5
503
330
1
100
AcDbSymbolTableRecord
100
AcDbBlockTableRecord
  2
*D1282
  0
BLOCK_RECORD
  5
518
330
1
100
AcDbSymbolTableRecord
100
AcDbBlockTableRecord
  2
*D1303
  0
BLOCK_RECORD
  5
A69
330
1
100
AcDbSymbolTableRecord
100
AcDbBlockTableRecord
  2
*D1324
  0
BLOCK_RECORD
  5
B5E
330
1
100
AcDbSymbolTableRecord
100
AcDbBlockTableRecord
  2
*D659
  0
BLOCK_RECORD
  5
B72
330
1
100
AcDbSymbolTableRecord
100
AcDbBlockTableRecord
  2
*D1261
  0
BLOCK_RECORD
  5
B86
330
1
100
AcDbSymbolTableRecord
100
AcDbBlockTableRecord
  2
*D1345
  0
BLOCK_RECORD
  5
B9A
330
1
100
AcDbSymbolTableRecord
100
AcDbBlockTableRecord
  2
*D1366
  0
BLOCK_RECORD
  5
BAE
330
1
100
AcDbSymbolTableRecord
100
AcDbBlockTableRecord
  2
*D1387
  0
BLOCK_RECORD
  5
BC2
330
1
100
AcDbSymbolTableRecord
100
AcDbBlockTableRecord
  2
*D2745
  0
BLOCK_RECORD
  5
CF7
330
1
100
AcDbSymbolTableRecord
100
AcDbBlockTableRecord
  2
*D3318
  0
BLOCK_RECORD
  5
D21
330
1
100
AcDbSymbolTableRecord
100
AcDbBlockTableRecord
  2
*D3360
  0
BLOCK_RECORD
  5
D36
330
1
100
AcDbSymbolTableRecord
100
AcDbBlockTableRecord
  2
*D3381
  0
BLOCK_RECORD
  5
E7C
330
1
100
AcDbSymbolTableRecord
100
AcDbBlockTableRecord
  2
*D3339
  0
BLOCK_RECORD
  5
E90
330
1
100
AcDbSymbolTableRecord
100
AcDbBlockTableRecord
  2
*D3402
  0
BLOCK_RECORD
  5
EA4
330
1
100
AcDbSymbolTableRecord
100
AcDbBlockTableRecord
  2
*D3423
  0
BLOCK_RECORD
  5
EB8
330
1
100
AcDbSymbolTableRecord
100
AcDbBlockTableRecord
  2
*D3444
  0
BLOCK_RECORD
  5
ECC
330
1
100
AcDbSymbolTableRecord
100
AcDbBlockTableRecord
  2
*D3465
  0
BLOCK_RECORD
  5
EE0
330
1
100
AcDbSymbolTableRecord
100
AcDbBlockTableRecord
  2
*D3486
  0
ENDTAB
  0
ENDSEC
  0
SECTION
  2
BLOCKS
  0
BLOCK
  5
20
330
1F
100
AcDbEntity
  8
0
100
AcDbBlockBegin
  2
*Model_Space
 70
     0
 10
0
 20
0
 30
0.0
  3
*Model_Space
  1

  0
ENDBLK
  5
21
330
1F
100
AcDbEntity
  8
0
100
AcDbBlockEnd
  0
BLOCK
  5
52
330
50
100
AcDbEntity
 67
     1
  8
0
100
AcDbBlockBegin
  2
*Paper_Space
 70
     0
 10
0
 20
0
 30
0.0
  3
*Paper_Space
  1

  0
ENDBLK
  5
53
330
50
100
AcDbEntity
 67
     1
  8
0
100
AcDbBlockEnd
  0
BLOCK
  5
57
330
55
100
AcDbEntity
  8
0
100
AcDbBlockBegin
  2
*Paper_Space0
 70
     0
 10
0
 20
0
 30
0.0
  3
*Paper_Space0
  1

  0
ENDBLK
  5
58
330
55
100
AcDbEntity
  8
0
100
AcDbBlockEnd
  0
BLOCK
  5
D5
330
D4
100
AcDbEntity
  8
0
100
AcDbBlockBegin
  2
*D211
 70
     0
 10
0
 20
0
 30
0.0
  3
*D211
  1

  0
MTEXT
  5
14ED
100
AcDbEntity
  8
Bemassung
  6
ByLayer
 62
   256
370
                                                                           -1
100
AcDbMText
 10
260
 20
112.291625
 30
0.0
 40
2.5
 41
0
 44
1
  1
200
  7
Standard
 71
     5
 72
     5
 73
     1
 11
1
 21
0
 31
0.0
  0
LINE
  5
14EE
100
AcDbEntity
  8
Bemassung
  6
ByLayer
 62
   256
370
                                                                           -1
100
AcDbLine
 10
159.99999999999997
 20
110.625
 30
0.0
 11
159.99999999999997
 21
111.25
 31
0.0
  0
LINE
  5
14EF
100
AcDbEntity
  8
Bemassung
  6
ByLayer
 62
   256
370
                                                                           -1
100
AcDbLine
 10
360
 20
110.625
 30
0.0
 11
360
 21
111.25
 31
0.0
  0
SOLID
  5
14F0
100
AcDbEntity
  8
Bemassung
  6
ByLayer
 62
   256
370
                                                                           -1
100
AcDbTrace
 10
159.99999999999997
 20
110
 30
0.0
 11
162.49999999999997
 21
110.44081745177117
 31
0.0
 12
162.49999999999997
 22
109.55918254822883
 32
0.0
 13
162.49999999999997
 23
109.55918254822883
 33
0.0
  0
SOLID
  5
14F1
100
AcDbEntity
  8
Bemassung
  6
ByLayer
 62
   256
370
                                                                           -1
100
AcDbTrace
 10
360
 20
110
 30
0.0
 11
357.5
 21
109.55918254822883
 31
0.0
 12
357.5
 22
110.44081745177117
 32
0.0
 13
357.5
 23
110.44081745177117
 33
0.0
  0
LINE
  5
14F2
100
AcDbEntity
  8
Bemassung
  6
ByLayer
 62
   256
370
                                                                           -1
100
AcDbLine
 10
162.49999999999997
 20
110
 30
0.0
 11
357.5
 21
110
 31
0.0
  0
ENDBLK
  5
D6
330
D4
100
AcDbEntity
  8
0
100
AcDbBlockEnd
  0
BLOCK
  5
138
330
137
100
AcDbEntity
  8
0
100
AcDbBlockBegin
  2
*D232
 70
     0
 10
0
 20
0
 30
0.0
  3
*D232
  1

  0
MTEXT
  5
14F3
100
AcDbEntity
  8
Bemassung
  6
ByLayer
 62
   256
370
                                                                           -1
100
AcDbMText
 10
260
 20
102.291625
 30
0.0
 40
2.5
 41
0
 44
1
  1
200
  7
Standard
 71
     5
 72
     5
 73
     1
 11
1
 21
0
 31
0.0
  0
LINE
  5
14F4
100
AcDbEntity
  8
Bemassung
  6
ByLayer
 62
   256
370
                                                                           -1
100
AcDbLine
 10
159.99999999999997
 20
109.375
 30
0.0
 11
159.99999999999997
 21
98.75
 31
0.0
  0
LINE
  5
14F5
100
AcDbEntity
  8
Bemassung
  6
ByLayer
 62
   256
370
                                                                           -1
100
AcDbLine
 10
360
 20
109.375
 30
0.0
 11
360
 21
98.75
 31
0.0
  0
SOLID
  5
14F6
100
AcDbEntity
  8
Bemassung
  6
ByLayer
 62
   256
370
                                                                           -1
100
AcDbTrace
 10
159.99999999999997
 20
100
 30
0.0
 11
162.49999999999997
 21
100.44081745177117
 31
0.0
 12
162.49999999999997
 22
99.55918254822883
 32
0.0
 13
162.49999999999997
 23
99.55918254822883
 33
0.0
  0
SOLID
  5
14F7
100
AcDbEntity
  8
Bemassung
  6
ByLayer
 62
   256
370
                                                                           -1
100
AcDbTrace
 10
360
 20
100
 30
0.0
 11
357.5
 21
99.55918254822883
 31
0.0
 12
357.5
 22
100.44081745177117
 32
0.0
 13
357.5
 23
100.44081745177117
 33
0.0
  0
LINE
  5
14F8
100
AcDbEntity
  8
Bemassung
  6
ByLayer
 62
   256
370
                                                                           -1
100
AcDbLine
 10
162.49999999999997
 20
100
 30
0.0
 11
357.5
 21
100
 31
0.0
  0
ENDBLK
  5
139
330
137
100
AcDbEntity
  8
0
100
AcDbBlockEnd
  0
BLOCK
  5
14C
330
14B
100
AcDbEntity
  8
0
100
AcDbBlockBegin
  2
*D253
 70
     0
 10
0
 20
0
 30
0.0
  3
*D253
  1

  0
MTEXT
  5
14F9
100
AcDbEntity
  8
Bemassung
  6
ByLayer
 62
   256
370
                                                                           -1
100
AcDbMText
 10
147.708375
 20
160
 30
0.0
 40
2.5
 41
0
 44
1
  1
100
  7
Standard
 71
     5
 72
     5
 73
     1
 11
6.123233995736766e-17
 21
1
 31
0.0
  0
LINE
  5
14FA
100
AcDbEntity
  8
Bemassung
  6
ByLayer
 62
   256
370
                                                                           -1
100
AcDbLine
 10
159.375
 20
210.00000000000003
 30
0.0
 11
148.75000000000003
 21
210.00000000000003
 31
0.0
  0
LINE
  5
14FB
100
AcDbEntity
  8
Bemassung
  6
ByLayer
 62
   256
370
                                                                           -1
100
AcDbLine
 10
159.37499999999997
 20
110
 30
0.0
 11
148.75
 21
110
 31
0.0
  0
SOLID
  5
14FC
100
AcDbEntity
  8
Bemassung
  6
ByLayer
 62
   256
370
                                                                           -1
100
AcDbTrace
 10
150.00000000000003
 20
210.00000000000003
 30
0.0
 11
150.44081745177118
 21
207.50000000000003
 31
0.0
 12
149.55918254822888
 22
207.50000000000003
 32
0.0
 13
149.55918254822888
 23
207.50000000000003
 33
0.0
  0
SOLID
  5
14FD
100
AcDbEntity
  8
Bemassung
  6
ByLayer
 62
   256
370
                                                                           -1
100
AcDbTrace
 10
150
 20
110
 30
0.0
 11
149.55918254822885
 21
112.5
 31
0.0
 12
150.44081745177115
 22
112.5
 32
0.0
 13
150.44081745177115
 23
112.5
 33
0.0
  0
LINE
  5
14FE
100
AcDbEntity
  8
Bemassung
  6
ByLayer
 62
   256
370
                                                                           -1
100
AcDbLine
 10
150.00000000000003
 20
207.50000000000003
 30
0.0
 11
150
 21
112.5
 31
0.0
  0
ENDBLK
  5
14D
330
14B
100
AcDbEntity
  8
0
100
AcDbBlockEnd
  0
BLOCK
  5
20E
330
20D
100
AcDbEntity
  8
0
100
AcDbBlockBegin
  2
*D524
 70
     0
 10
0
 20
0
 30
0.0
  3
*D524
  1

  0
MTEXT
  5
14FF
100
AcDbEntity
  8
Bemassung
  6
ByLayer
 62
   256
370
                                                               -1
100
AcDbMText
 10
397.708375
 20
46.24999999999995
 30
0.0
 40
2.5
 41
0
 44
1
  1
0
  7
Standard
 71
     5
 72
     5
 73
     1
 11
6.123233995736766e-17
 21
1
 31
0.0
  0
LINE
  5
1500
100
AcDbEntity
  8
Bemassung
  6
ByLayer
 62
   256
370
                                                               -1
100
AcDbLine
 10
20.625
 20
40
 30
0.0
 11
401.25
 21
39.99999999999995
 31
0.0
  0
LINE
  5
1501
100
AcDbEntity
  8
Bemassung
  6
ByLayer
 62
   256
370
                                                               -1
100
AcDbLine
 10
20.625
 20
40
 30
0.0
 11
401.25
 21
39.99999999999995
 31
0.0
  0
SOLID
  5
1502
100
AcDbEntity
  8
Bemassung
  6
ByLayer
 62
   256
370
                                                               -1
100
AcDbTrace
 10
400
 20
39.99999999999995
 30
0.0
 11
399.5591825482288
 21
42.49999999999995
 31
0.0
 12
400.4408174517712
 22
42.49999999999995
 32
0.0
 13
400.4408174517712
 23
42.49999999999995
 33
0.0
  0
SOLID
  5
1503
100
AcDbEntity
  8
Bemassung
  6
ByLayer
 62
   256
370
                                                               -1
100
AcDbTrace
 10
400
 20
39.99999999999995
 30
0.0
 11
399.5591825482288
 21
42.49999999999995
 31
0.0
 12
400.4408174517712
 22
42.49999999999995
 32
0.0
 13
400.4408174517712
 23
42.49999999999995
 33
0.0
  0
LINE
  5
1504
100
AcDbEntity
  8
Bemassung
  6
ByLayer
 62
   256
370
                                                               -1
100
AcDbLine
 10
400
 20
39.99999999999995
 30
0.0
 11
400
 21
39.99999999999995
 31
0.0
  0
LINE
  5
1505
100
AcDbEntity
  8
Bemassung
  6
ByLayer
 62
   256
370
                                                               -1
100
AcDbLine
 10
400
 20
42.49999999999995
 30
0.0
 11
400
 21
44.99999999999995
 31
0.0
  0
LINE
  5
1506
100
AcDbEntity
  8
Bemassung
  6
ByLayer
 62
   256
370
                                                               -1
100
AcDbLine
 10
400
 20
42.49999999999995
 30
0.0
 11
400
 21
47.49999999999995
 31
0.0
  0
ENDBLK
  5
20F
330
20D
100
AcDbEntity
  8
0
100
AcDbBlockEnd
  0
BLOCK
  5
24D
330
24C
100
AcDbEntity
  8
0
100
AcDbBlockBegin
  2
*D587
 70
     0
 10
0
 20
0
 30
0.0
  3
*D587
  1

  0
MTEXT
  5
1507
100
AcDbEntity
  8
Bemassung
  6
ByLayer
 62
   256
370
                                                               -1
100
AcDbMText
 10
207.708375
 20
65
 30
0.0
 40
2.5
 41
0
 44
1
  1
D 30
  7
Standard
 71
     5
 72
     5
 73
     1
 11
6.123233995736766e-17
 21
1
 31
0.0
  0
LINE
  5
1508
100
AcDbEntity
  8
Bemassung
  6
ByLayer
 62
   256
370
                                                               -1
100
AcDbLine
 10
200.625
 20
80
 30
0.0
 11
211.25
 21
80
 31
0.0
  0
LINE
  5
1509
100
AcDbEntity
  8
Bemassung
  6
ByLayer
 62
   256
370
                                                               -1
100
AcDbLine
 10
200.625
 20
50
 30
0.0
 11
211.25
 21
50
 31
0.0
  0
SOLID
  5
150A
100
AcDbEntity
  8
Bemassung
  6
ByLayer
 62
   256
370
                                                               -1
100
AcDbTrace
 10
210
 20
80
 30
0.0
 11
210.44081745177115
 21
77.5
 31
0.0
 12
209.55918254822885
 22
77.5
 32
0.0
 13
209.55918254822885
 23
77.5
 33
0.0
  0
SOLID
  5
150B
100
AcDbEntity
  8
Bemassung
  6
ByLayer
 62
   256
370
                                                               -1
100
AcDbTrace
 10
210
 20
50
 30
0.0
 11
209.55918254822885
 21
52.5
 31
0.0
 12
210.44081745177115
 22
52.5
 32
0.0
 13
210.44081745177115
 23
52.5
 33
0.0
  0
LINE
  5
150C
100
AcDbEntity
  8
Bemassung
  6
ByLayer
 62
   256
370
                                                               -1
100
AcDbLine
 10
210
 20
77.5
 30
0.0
 11
210
 21
52.5
 31
0.0
  0
ENDBLK
  5
24E
330
24C
100
AcDbEntity
  8
0
100
AcDbBlockEnd
  0
BLOCK
  5
3EA
330
3E9
100
AcDbEntity
  8
0
100
AcDbBlockBegin
  2
*D545
 70
     0
 10
0
 20
0
 30
0.0
  3
*D545
  1

  0
MTEXT
  5
150D
100
AcDbEntity
  8
Bemassung
  6
ByLayer
 62
   256
370
                                                               -1
100
AcDbMText
 10
210
 20
32.291624999999996
 30
0.0
 40
2.5
 41
0
 44
1
  1
2000
  7
Standard
 71
     5
 72
     5
 73
     1
 11
1
 21
0
 31
0.0
  0
LINE
  5
150E
100
AcDbEntity
  8
Bemassung
  6
ByLayer
 62
   256
370
                                                               -1
100
AcDbLine
 10
20
 20
39.375
 30
0.0
 11
20
 21
28.75
 31
0.0
  0
LINE
  5
150F
100
AcDbEntity
  8
Bemassung
  6
ByLayer
 62
   256
370
                                                               -1
100
AcDbLine
 10
400
 20
39.375
 30
0.0
 11
400
 21
28.75
 31
0.0
  0
SOLID
  5
1510
100
AcDbEntity
  8
Bemassung
  6
ByLayer
 62
   256
370
                                                               -1
100
AcDbTrace
 10
20
 20
30
 30
0.0
 11
22.5
 21
30.440817451771164
 31
0.0
 12
22.5
 22
29.559182548228836
 32
0.0
 13
22.5
 23
29.559182548228836
 33
0.0
  0
SOLID
  5
1511
100
AcDbEntity
  8
Bemassung
  6
ByLayer
 62
   256
370
                                                               -1
100
AcDbTrace
 10
400
 20
30
 30
0.0
 11
397.5
 21
29.559182548228836
 31
0.0
 12
397.5
 22
30.440817451771164
 32
0.0
 13
397.5
 23
30.440817451771164
 33
0.0
  0
LINE
  5
1512
100
AcDbEntity
  8
Bemassung
  6
ByLayer
 62
   256
370
                                                               -1
100
AcDbLine
 10
22.5
 20
30
 30
0.0
 11
397.5
 21
30
 31
0.0
  0
ENDBLK
  5
3EB
330
3E9
100
AcDbEntity
  8
0
100
AcDbBlockEnd
  0
BLOCK
  5
3FE
330
3FD
100
AcDbEntity
  8
0
100
AcDbBlockBegin
  2
*D566
 70
     0
 10
0
 20
0
 30
0.0
  3
*D566
  1

  0
MTEXT
  5
1513
100
AcDbEntity
  8
Bemassung
  6
ByLayer
 62
   256
370
                                                               -1
100
AcDbMText
 10
407.708375
 20
65
 30
0.0
 40
2.5
 41
0
 44
1
  1
D 60
  7
Standard
 71
     5
 72
     5
 73
     1
 11
6.123233995736766e-17
 21
1
 31
0.0
  0
LINE
  5
1514
100
AcDbEntity
  8
Bemassung
  6
ByLayer
 62
   256
370
                                                               -1
100
AcDbLine
 10
400.625
 20
90
 30
0.0
 11
411.25
 21
90
 31
0.0
  0
LINE
  5
1515
100
AcDbEntity
  8
Bemassung
  6
ByLayer
 62
   256
370
                                                               -1
100
AcDbLine
 10
400.625
 20
40
 30
0.0
 11
411.25
 21
40
 31
0.0
  0
SOLID
  5
1516
100
AcDbEntity
  8
Bemassung
  6
ByLayer
 62
   256
370
                                                               -1
100
AcDbTrace
 10
410
 20
90
 30
0.0
 11
410.4408174517712
 21
87.5
 31
0.0
 12
409.5591825482288
 22
87.5
 32
0.0
 13
409.5591825482288
 23
87.5
 33
0.0
  0
SOLID
  5
1517
100
AcDbEntity
  8
Bemassung
  6
ByLayer
 62
   256
370
                                                               -1
100
AcDbTrace
 10
410
 20
40
 30
0.0
 11
409.5591825482288
 21
42.5
 31
0.0
 12
410.4408174517712
 22
42.5
 32
0.0
 13
410.4408174517712
 23
42.5
 33
0.0
  0
LINE
  5
1518
100
AcDbEntity
  8
Bemassung
  6
ByLayer
 62
   256
370
                                                               -1
100
AcDbLine
 10
410
 20
87.5
 30
0.0
 11
410
 21
42.5
 31
0.0
  0
ENDBLK
  5
3FF
330
3FD
100
AcDbEntity
  8
0
100
AcDbBlockEnd
  0
BLOCK
  5
412
330
411
100
AcDbEntity
  8
0
100
AcDbBlockBegin
  2
*D608
 70
     0
 10
0
 20
0
 30
0.0
  3
*D608
  1

  0
MTEXT
  5
1519
100
AcDbEntity
  8
Bemassung
  6
ByLayer
 62
   256
370
                                                               -1
100
AcDbMText
 10
238.34815346466107
 20
65.00000000000001
 30
0.0
 40
2.5
 41
0
 44
1
  1
D 26
  7
Standard
 71
     5
 72
     5
 73
     1
 11
6.123233995736766e-17
 21
1
 31
0.0
  0
LINE
  5
151A
100
AcDbEntity
  8
Bemassung
  6
ByLayer
 62
   256
370
                                                               -1
100
AcDbLine
 10
241.8814030267287
 20
78
 30
0.0
 11
239.38977846466108
 21
78
 31
0.0
  0
LINE
  5
151B
100
AcDbEntity
  8
Bemassung
  6
ByLayer
 62
   256
370
                                                               -1
100
AcDbLine
 10
241.8814030267287
 20
52.00000000000002
 30
0.0
 11
239.38977846466108
 21
52.00000000000002
 31
0.0
  0
SOLID
  5
151C
100
AcDbEntity
  8
Bemassung
  6
ByLayer
 62
   256
370
                                                               -1
100
AcDbTrace
 10
240.63977846466108
 20
78
 30
0.0
 11
241.08059591643223
 21
75.5
 31
0.0
 12
240.19896101288992
 22
75.5
 32
0.0
 13
240.19896101288992
 23
75.5
 33
0.0
  0
SOLID
  5
151D
100
AcDbEntity
  8
Bemassung
  6
ByLayer
 62
   256
370
                                                               -1
100
AcDbTrace
 10
240.63977846466108
 20
52.00000000000002
 30
0.0
 11
240.19896101288992
 21
54.50000000000002
 31
0.0
 12
241.08059591643223
 22
54.50000000000002
 32
0.0
 13
241.08059591643223
 23
54.50000000000002
 33
0.0
  0
LINE
  5
151E
100
AcDbEntity
  8
Bemassung
  6
ByLayer
 62
   256
370
                                                               -1
100
AcDbLine
 10
240.63977846466108
 20
75.5
 30
0.0
 11
240.63977846466108
 21
54.50000000000002
 31
0.0
  0
ENDBLK
  5
413
330
411
100
AcDbEntity
  8
0
100
AcDbBlockEnd
  0
BLOCK
  5
426
330
425
100
AcDbEntity
  8
0
100
AcDbBlockBegin
  2
*D629
 70
     0
 10
0
 20
0
 30
0.0
  3
*D629
  1

  0
MTEXT
  5
151F
100
AcDbEntity
  8
Bemassung
  6
ByLayer
 62
   256
370
                                                               -1
100
AcDbMText
 10
408.4583333333333
 20
102.90652901522917
 30
0.0
 40
2.5
 41
0
 44
1
  1
2
  7
Standard
 71
     5
 72
     5
 73
     1
 11
1
 21
0
 31
0.0
  0
LINE
  5
1520
100
AcDbEntity
  8
Bemassung
  6
ByLayer
 62
   256
370
                                                               -1
100
AcDbLine
 10
400
 20
90.625
 30
0.0
 11
400
 21
101.86490401522917
 31
0.0
  0
LINE
  5
1521
100
AcDbEntity
  8
Bemassung
  6
ByLayer
 62
   256
370
                                                               -1
100
AcDbLine
 10
402
 20
90.625
 30
0.0
 11
402
 21
101.86490401522917
 31
0.0
  0
SOLID
  5
1522
100
AcDbEntity
  8
Bemassung
  6
ByLayer
 62
   256
370
                                                               -1
100
AcDbTrace
 10
400
 20
100.61490401522917
 30
0.0
 11
397.5
 21
100.174086563458
 31
0.0
 12
397.5
 22
101.05572146700034
 32
0.0
 13
397.5
 23
101.05572146700034
 33
0.0
  0
SOLID
  5
1523
100
AcDbEntity
  8
Bemassung
  6
ByLayer
 62
   256
370
                                                               -1
100
AcDbTrace
 10
402
 20
100.61490401522917
 30
0.0
 11
404.5
 21
101.05572146700034
 31
0.0
 12
404.5
 22
100.174086563458
 32
0.0
 13
404.5
 23
100.174086563458
 33
0.0
  0
LINE
  5
1524
100
AcDbEntity
  8
Bemassung
  6
ByLayer
 62
   256
370
                                                               -1
100
AcDbLine
 10
400
 20
100.61490401522917
 30
0.0
 11
402
 21
100.61490401522917
 31
0.0
  0
LINE
  5
1525
100
AcDbEntity
  8
Bemassung
  6
ByLayer
 62
   256
370
                                                               -1
100
AcDbLine
 10
397.5
 20
100.61490401522917
 30
0.0
 11
395
 21
100.61490401522917
 31
0.0
  0
LINE
  5
1526
100
AcDbEntity
  8
Bemassung
  6
ByLayer
 62
   256
370
                                                               -1
100
AcDbLine
 10
404.5
 20
100.61490401522917
 30
0.0
 11
409.91666666666663
 21
100.61490401522917
 31
0.0
  0
ENDBLK
  5
427
330
425
100
AcDbEntity
  8
0
100
AcDbBlockEnd
  0
BLOCK
  5
4B1
330
4B0
100
AcDbEntity
  8
0
100
AcDbBlockBegin
  2
*D503
 70
     0
 10
0
 20
0
 30
0.0
  3
*D503
  1

  0
MTEXT
  5
1527
100
AcDbEntity
  8
Bemassung
  6
ByLayer
 62
   256
370
                                                               -1
100
AcDbMText
 10
85
 20
42.291624999999996
 30
0.0
 40
2.5
 41
0
 44
1
  1
D8
  7
Standard
 71
     5
 72
     5
 73
     1
 11
1
 21
0
 31
0.0
  0
LINE
  5
1528
100
AcDbEntity
  8
Bemassung
  6
ByLayer
 62
   256
370
                                                               -1
100
AcDbLine
 10
80
 20
49.375
 30
0.0
 11
80
 21
38.75
 31
0.0
  0
LINE
  5
1529
100
AcDbEntity
  8
Bemassung
  6
ByLayer
 62
   256
370
                                                               -1
100
AcDbLine
 10
90
 20
49.375
 30
0.0
 11
90
 21
38.75
 31
0.0
  0
SOLID
  5
152A
100
AcDbEntity
  8
Bemassung
  6
ByLayer
 62
   256
370
                                                               -1
100
AcDbTrace
 10
80
 20
40
 30
0.0
 11
82.5
 21
40.44081745177116
 31
0.0
 12
82.5
 22
39.55918254822884
 32
0.0
 13
82.5
 23
39.55918254822884
 33
0.0
  0
SOLID
  5
152B
100
AcDbEntity
  8
Bemassung
  6
ByLayer
 62
   256
370
                                                               -1
100
AcDbTrace
 10
90
 20
40
 30
0.0
 11
87.5
 21
39.55918254822884
 31
0.0
 12
87.5
 22
40.44081745177116
 32
0.0
 13
87.5
 23
40.44081745177116
 33
0.0
  0
LINE
  5
152C
100
AcDbEntity
  8
Bemassung
  6
ByLayer
 62
   256
370
                                                               -1
100
AcDbLine
 10
82.5
 20
40
 30
0.0
 11
87.5
 21
40
 31
0.0
  0
ENDBLK
  5
4B2
330
4B0
100
AcDbEntity
  8
0
100
AcDbBlockEnd
  0
BLOCK
  5
4DA
330
4D9
100
AcDbEntity
  8
0
100
AcDbBlockBegin
  2
*D1240
 70
     0
 10
0
 20
0
 30
0.0
  3
*D1240
  1

  0
MTEXT
  5
152D
100
AcDbEntity
  8
Bemassung
  6
ByLayer
 62
   256
370
                                                      -1
100
AcDbMText
 10
140
 20
32.291625
 30
0.0
 40
2.5
 41
0
 44
1
  1
240
  7
Standard
 71
     5
 72
     5
 73
     1
 11
1
 21
0
 31
0.0
  0
LINE
  5
152E
100
AcDbEntity
  8
Bemassung
  6
ByLayer
 62
   256
370
                                                      -1
100
AcDbLine
 10
19.999999999999993
 20
49.375
 30
0.0
 11
19.999999999999993
 21
28.75
 31
0.0
  0
LINE
  5
152F
100
AcDbEntity
  8
Bemassung
  6
ByLayer
 62
   256
370
                                                      -1
100
AcDbLine
 10
260
 20
49.375
 30
0.0
 11
260
 21
28.75
 31
0.0
  0
SOLID
  5
1530
100
AcDbEntity
  8
Bemassung
  6
ByLayer
 62
   256
370
                                                      -1
100
AcDbTrace
 10
19.999999999999993
 20
30
 30
0.0
 11
22.499999999999993
 21
30.440817451771164
 31
0.0
 12
22.499999999999993
 22
29.559182548228836
 32
0.0
 13
22.499999999999993
 23
29.559182548228836
 33
0.0
  0
SOLID
  5
1531
100
AcDbEntity
  8
Bemassung
  6
ByLayer
 62
   256
370
                                                      -1
100
AcDbTrace
 10
260
 20
30
 30
0.0
 11
257.5
 21
29.559182548228836
 31
0.0
 12
257.5
 22
30.440817451771164
 32
0.0
 13
257.5
 23
30.440817451771164
 33
0.0
  0
LINE
  5
1532
100
AcDbEntity
  8
Bemassung
  6
ByLayer
 62
   256
370
                                                      -1
100
AcDbLine
 10
22.499999999999993
 20
30
 30
0.0
 11
257.5
 21
30
 31
0.0
  0
ENDBLK
  5
4DB
330
4D9
100
AcDbEntity
  8
0
100
AcDbBlockEnd
  0
BLOCK
  5
504
330
503
100
AcDbEntity
  8
0
100
AcDbBlockBegin
  2
*D1282
 70
     0
 10
0
 20
0
 30
0.0
  3
*D1282
  1

  0
MTEXT
  5
1533
100
AcDbEntity
  8
Bemassung
  6
ByLayer
 62
   256
370
                                                      -1
100
AcDbMText
 10
140
 20
52.291625
 30
0.0
 40
2.5
 41
0
 44
1
  1
240
  7
Standard
 71
     5
 72
     5
 73
     1
 11
1
 21
0
 31
0.0
  0
LINE
  5
1534
100
AcDbEntity
  8
Bemassung
  6
ByLayer
 62
   256
370
                                                      -1
100
AcDbLine
 10
19.999999999999993
 20
50.625
 30
0.0
 11
19.999999999999993
 21
51.25
 31
0.0
  0
LINE
  5
1535
100
AcDbEntity
  8
Bemassung
  6
ByLayer
 62
   256
370
                                                      -1
100
AcDbLine
 10
260
 20
50.625
 30
0.0
 11
260
 21
51.25
 31
0.0
  0
SOLID
  5
1536
100
AcDbEntity
  8
Bemassung
  6
ByLayer
 62
   256
370
                                                      -1
100
AcDbTrace
 10
19.999999999999993
 20
50
 30
0.0
 11
22.499999999999993
 21
50.44081745177116
 31
0.0
 12
22.499999999999993
 22
49.55918254822884
 32
0.0
 13
22.499999999999993
 23
49.55918254822884
 33
0.0
  0
SOLID
  5
1537
100
AcDbEntity
  8
Bemassung
  6
ByLayer
 62
   256
370
                                                      -1
100
AcDbTrace
 10
260
 20
50
 30
0.0
 11
257.5
 21
49.55918254822884
 31
0.0
 12
257.5
 22
50.44081745177116
 32
0.0
 13
257.5
 23
50.44081745177116
 33
0.0
  0
LINE
  5
1538
100
AcDbEntity
  8
Bemassung
  6
ByLayer
 62
   256
370
                                                      -1
100
AcDbLine
 10
22.499999999999993
 20
50
 30
0.0
 11
257.5
 21
50
 31
0.0
  0
ENDBLK
  5
505
330
503
100
AcDbEntity
  8
0
100
AcDbBlockEnd
  0
BLOCK
  5
519
330
518
100
AcDbEntity
  8
0
100
AcDbBlockBegin
  2
*D1303
 70
     0
 10
0
 20
0
 30
0.0
  3
*D1303
  1

  0
MTEXT
  5
1539
100
AcDbEntity
  8
Bemassung
  6
ByLayer
 62
   256
370
                                                      -1
100
AcDbMText
 10
140
 20
52.291625
 30
0.0
 40
2.5
 41
0
 44
1
  1
240
  7
Standard
 71
     5
 72
     5
 73
     1
 11
1
 21
0
 31
0.0
  0
LINE
  5
153A
100
AcDbEntity
  8
Bemassung
  6
ByLayer
 62
   256
370
                                                      -1
100
AcDbLine
 10
19.999999999999993
 20
50.625
 30
0.0
 11
19.999999999999993
 21
51.25
 31
0.0
  0
LINE
  5
153B
100
AcDbEntity
  8
Bemassung
  6
ByLayer
 62
   256
370
                                                      -1
100
AcDbLine
 10
260
 20
50.625
 30
0.0
 11
260
 21
51.25
 31
0.0
  0
SOLID
  5
153C
100
AcDbEntity
  8
Bemassung
  6
ByLayer
 62
   256
370
                                                      -1
100
AcDbTrace
 10
19.999999999999993
 20
50
 30
0.0
 11
22.499999999999993
 21
50.44081745177116
 31
0.0
 12
22.499999999999993
 22
49.55918254822884
 32
0.0
 13
22.499999999999993
 23
49.55918254822884
 33
0.0
  0
SOLID
  5
153D
100
AcDbEntity
  8
Bemassung
  6
ByLayer
 62
   256
370
                                                      -1
100
AcDbTrace
 10
260
 20
50
 30
0.0
 11
257.5
 21
49.55918254822884
 31
0.0
 12
257.5
 22
50.44081745177116
 32
0.0
 13
257.5
 23
50.44081745177116
 33
0.0
  0
LINE
  5
153E
100
AcDbEntity
  8
Bemassung
  6
ByLayer
 62
   256
370
                                                      -1
100
AcDbLine
 10
22.499999999999993
 20
50
 30
0.0
 11
257.5
 21
50
 31
0.0
  0
ENDBLK
  5
51A
330
518
100
AcDbEntity
  8
0
100
AcDbBlockEnd
  0
BLOCK
  5
A6A
330
A69
100
AcDbEntity
  8
0
100
AcDbBlockBegin
  2
*D1324
 70
     0
 10
0
 20
0
 30
0.0
  3
*D1324
  1

  0
MTEXT
  5
153F
100
AcDbEntity
  8
Bemassung
  6
ByLayer
 62
   256
370
                                                      -1
100
AcDbMText
 10
140
 20
12.291625
 30
0.0
 40
2.5
 41
0
 44
1
  1
2000
  7
Standard
 71
     5
 72
     5
 73
     1
 11
1
 21
0
 31
0.0
  0
LINE
  5
1540
100
AcDbEntity
  8
Bemassung
  6
ByLayer
 62
   256
370
                                                      -1
100
AcDbLine
 10
19.999999999999993
 20
49.375
 30
0.0
 11
19.99999999999999
 21
8.75
 31
0.0
  0
LINE
  5
1541
100
AcDbEntity
  8
Bemassung
  6
ByLayer
 62
   256
370
                                                      -1
100
AcDbLine
 10
260
 20
49.375
 30
0.0
 11
260
 21
8.75
 31
0.0
  0
SOLID
  5
1542
100
AcDbEntity
  8
Bemassung
  6
ByLayer
 62
   256
370
                                                      -1
100
AcDbTrace
 10
19.99999999999999
 20
10
 30
0.0
 11
22.49999999999999
 21
10.440817451771162
 31
0.0
 12
22.49999999999999
 22
9.559182548228838
 32
0.0
 13
22.49999999999999
 23
9.559182548228838
 33
0.0
  0
SOLID
  5
1543
100
AcDbEntity
  8
Bemassung
  6
ByLayer
 62
   256
370
                                                      -1
100
AcDbTrace
 10
260
 20
10
 30
0.0
 11
257.5
 21
9.559182548228836
 31
0.0
 12
257.5
 22
10.440817451771162
 32
0.0
 13
257.5
 23
10.440817451771162
 33
0.0
  0
LINE
  5
1544
100
AcDbEntity
  8
Bemassung
  6
ByLayer
 62
   256
370
                                                      -1
100
AcDbLine
 10
22.49999999999999
 20
10
 30
0.0
 11
257.5
 21
10
 31
0.0
  0
ENDBLK
  5
A6B
330
A69
100
AcDbEntity
  8
0
100
AcDbBlockEnd
  0
BLOCK
  5
B5F
330
B5E
100
AcDbEntity
  8
0
100
AcDbBlockBegin
  2
*D659
 70
     0
 10
0
 20
0
 30
0.0
  3
*D659
  1

  0
MTEXT
  5
1545
100
AcDbEntity
  8
Bemassung
  6
ByLayer
 62
   256
370
                                                               -1
100
AcDbMText
 10
7.342627155303436
 20
65
 30
0.0
 40
2.5
 41
0
 44
1
  1
D30
  7
Standard
 71
     5
 72
     5
 73
     1
 11
6.123233995736766e-17
 21
1
 31
0.0
  0
LINE
  5
1546
100
AcDbEntity
  8
Bemassung
  6
ByLayer
 62
   256
370
                                                               -1
100
AcDbLine
 10
19.375
 20
80
 30
0.0
 11
8.38425215530344
 21
80
 31
0.0
  0
LINE
  5
1547
100
AcDbEntity
  8
Bemassung
  6
ByLayer
 62
   256
370
                                                               -1
100
AcDbLine
 10
19.375
 20
50
 30
0.0
 11
8.384252155303434
 21
50
 31
0.0
  0
SOLID
  5
1548
100
AcDbEntity
  8
Bemassung
  6
ByLayer
 62
   256
370
                                                               -1
100
AcDbTrace
 10
9.63425215530344
 20
80
 30
0.0
 11
10.075069607074601
 21
77.5
 31
0.0
 12
9.193434703532278
 22
77.5
 32
0.0
 13
9.193434703532278
 23
77.5
 33
0.0
  0
SOLID
  5
1549
100
AcDbEntity
  8
Bemassung
  6
ByLayer
 62
   256
370
                                                               -1
100
AcDbTrace
 10
9.634252155303434
 20
50
 30
0.0
 11
9.193434703532272
 21
52.5
 31
0.0
 12
10.075069607074596
 22
52.5
 32
0.0
 13
10.075069607074596
 23
52.5
 33
0.0
  0
LINE
  5
154A
100
AcDbEntity
  8
Bemassung
  6
ByLayer
 62
   256
370
                                                               -1
100
AcDbLine
 10
9.63425215530344
 20
77.5
 30
0.0
 11
9.634252155303434
 21
52.5
 31
0.0
  0
ENDBLK
  5
B60
330
B5E
100
AcDbEntity
  8
0
100
AcDbBlockEnd
  0
BLOCK
  5
B73
330
B72
100
AcDbEntity
  8
0
100
AcDbBlockBegin
  2
*D1261
 70
     0
 10
0
 20
0
 30
0.0
  3
*D1261
  1

  0
MTEXT
  5
154B
100
AcDbEntity
  8
Bemassung
  6
ByLayer
 62
   256
370
                                                      -1
100
AcDbMText
 10
85
 20
22.291625
 30
0.0
 40
2.5
 41
0
 44
1
  1
D8
  7
Standard
 71
     5
 72
     5
 73
     1
 11
1
 21
0
 31
0.0
  0
LINE
  5
154C
100
AcDbEntity
  8
Bemassung
  6
ByLayer
 62
   256
370
                                                      -1
100
AcDbLine
 10
80
 20
49.375
 30
0.0
 11
80
 21
18.75
 31
0.0
  0
LINE
  5
154D
100
AcDbEntity
  8
Bemassung
  6
ByLayer
 62
   256
370
                                                      -1
100
AcDbLine
 10
90
 20
48.75
 30
0.0
 11
90
 21
18.75
 31
0.0
  0
SOLID
  5
154E
100
AcDbEntity
  8
Bemassung
  6
ByLayer
 62
   256
370
                                                      -1
100
AcDbTrace
 10
80
 20
20
 30
0.0
 11
82.5
 21
20.440817451771164
 31
0.0
 12
82.5
 22
19.559182548228836
 32
0.0
 13
82.5
 23
19.559182548228836
 33
0.0
  0
SOLID
  5
154F
100
AcDbEntity
  8
Bemassung
  6
ByLayer
 62
   256
370
                                                      -1
100
AcDbTrace
 10
90
 20
20
 30
0.0
 11
87.5
 21
19.559182548228836
 31
0.0
 12
87.5
 22
20.440817451771164
 32
0.0
 13
87.5
 23
20.440817451771164
 33
0.0
  0
LINE
  5
1550
100
AcDbEntity
  8
Bemassung
  6
ByLayer
 62
   256
370
                                                      -1
100
AcDbLine
 10
82.5
 20
20
 30
0.0
 11
87.5
 21
20
 31
0.0
  0
ENDBLK
  5
B74
330
B72
100
AcDbEntity
  8
0
100
AcDbBlockEnd
  0
BLOCK
  5
B87
330
B86
100
AcDbEntity
  8
0
100
AcDbBlockBegin
  2
*D1345
 70
     0
 10
0
 20
0
 30
0.0
  3
*D1345
  1

  0
MTEXT
  5
1551
100
AcDbEntity
  8
Bemassung
  6
ByLayer
 62
   256
370
                                                      -1
100
AcDbMText
 10
273.2562237819814
 20
65
 30
0.0
 40
2.5
 41
0
 44
1
  1
D60
  7
Standard
 71
     5
 72
     5
 73
     1
 11
6.123233995736766e-17
 21
1
 31
0.0
  0
LINE
  5
1552
100
AcDbEntity
  8
Bemassung
  6
ByLayer
 62
   256
370
                                                      -1
100
AcDbLine
 10
262.625
 20
95
 30
0.0
 11
276.79784878198143
 21
95
 31
0.0
  0
LINE
  5
1553
100
AcDbEntity
  8
Bemassung
  6
ByLayer
 62
   256
370
                                                      -1
100
AcDbLine
 10
262.625
 20
35
 30
0.0
 11
276.79784878198143
 21
35
 31
0.0
  0
SOLID
  5
1554
100
AcDbEntity
  8
Bemassung
  6
ByLayer
 62
   256
370
                                                      -1
100
AcDbTrace
 10
275.54784878198143
 20
95
 30
0.0
 11
275.9886662337526
 21
92.5
 31
0.0
 12
275.10703133021025
 22
92.5
 32
0.0
 13
275.10703133021025
 23
92.5
 33
0.0
  0
SOLID
  5
1555
100
AcDbEntity
  8
Bemassung
  6
ByLayer
 62
   256
370
                                                      -1
100
AcDbTrace
 10
275.54784878198143
 20
35
 30
0.0
 11
275.10703133021025
 21
37.5
 31
0.0
 12
275.9886662337526
 22
37.5
 32
0.0
 13
275.9886662337526
 23
37.5
 33
0.0
  0
LINE
  5
1556
100
AcDbEntity
  8
Bemassung
  6
ByLayer
 62
   256
370
                                                      -1
100
AcDbLine
 10
275.54784878198143
 20
92.5
 30
0.0
 11
275.54784878198143
 21
37.5
 31
0.0
  0
ENDBLK
  5
B88
330
B86
100
AcDbEntity
  8
0
100
AcDbBlockEnd
  0
BLOCK
  5
B9B
330
B9A
100
AcDbEntity
  8
0
100
AcDbBlockBegin
  2
*D1366
 70
     0
 10
0
 20
0
 30
0.0
  3
*D1366
  1

  0
MTEXT
  5
1557
100
AcDbEntity
  8
Bemassung
  6
ByLayer
 62
   256
370
                                                      -1
100
AcDbMText
 10
268.4583333333333
 20
107.82089077174717
 30
0.0
 40
2.5
 41
0
 44
1
  1
2
  7
Standard
 71
     5
 72
     5
 73
     1
 11
1
 21
0
 31
0.0
  0
LINE
  5
1558
100
AcDbEntity
  8
Bemassung
  6
ByLayer
 62
   256
370
                                                      -1
100
AcDbLine
 10
260
 20
95.625
 30
0.0
 11
260
 21
106.77926577174718
 31
0.0
  0
LINE
  5
1559
100
AcDbEntity
  8
Bemassung
  6
ByLayer
 62
   256
370
                                                      -1
100
AcDbLine
 10
262
 20
95.625
 30
0.0
 11
262
 21
106.77926577174718
 31
0.0
  0
SOLID
  5
155A
100
AcDbEntity
  8
Bemassung
  6
ByLayer
 62
   256
370
                                                      -1
100
AcDbTrace
 10
260
 20
105.52926577174718
 30
0.0
 11
257.5
 21
105.08844831997601
 31
0.0
 12
257.5
 22
105.97008322351834
 32
0.0
 13
257.5
 23
105.97008322351834
 33
0.0
  0
SOLID
  5
155B
100
AcDbEntity
  8
Bemassung
  6
ByLayer
 62
   256
370
                                                      -1
100
AcDbTrace
 10
262
 20
105.52926577174718
 30
0.0
 11
264.5
 21
105.97008322351834
 31
0.0
 12
264.5
 22
105.08844831997601
 32
0.0
 13
264.5
 23
105.08844831997601
 33
0.0
  0
LINE
  5
155C
100
AcDbEntity
  8
Bemassung
  6
ByLayer
 62
   256
370
                                                      -1
100
AcDbLine
 10
260
 20
105.52926577174718
 30
0.0
 11
262
 21
105.52926577174718
 31
0.0
  0
LINE
  5
155D
100
AcDbEntity
  8
Bemassung
  6
ByLayer
 62
   256
370
                                                      -1
100
AcDbLine
 10
257.5
 20
105.52926577174718
 30
0.0
 11
255
 21
105.52926577174718
 31
0.0
  0
LINE
  5
155E
100
AcDbEntity
  8
Bemassung
  6
ByLayer
 62
   256
370
                                                      -1
100
AcDbLine
 10
264.5
 20
105.52926577174718
 30
0.0
 11
269.91666666666663
 21
105.52926577174718
 31
0.0
  0
ENDBLK
  5
B9C
330
B9A
100
AcDbEntity
  8
0
100
AcDbBlockEnd
  0
BLOCK
  5
BAF
330
BAE
100
AcDbEntity
  8
0
100
AcDbBlockBegin
  2
*D1387
 70
     0
 10
0
 20
0
 30
0.0
  3
*D1387
  1

  0
MTEXT
  5
155F
100
AcDbEntity
  8
Bemassung
  6
ByLayer
 62
   256
370
                                                      -1
100
AcDbMText
 10
228.5330130974809
 20
65
 30
0.0
 40
2.5
 41
0
 44
1
  1
D26
  7
Standard
 71
     5
 72
     5
 73
     1
 11
6.123233995736766e-17
 21
1
 31
0.0
  0
LINE
  5
1560
100
AcDbEntity
  8
Bemassung
  6
ByLayer
 62
   256
370
                                                      -1
100
AcDbLine
 10
220.68076272405582
 20
78
 30
0.0
 11
232.07463809748091
 21
78
 31
0.0
  0
LINE
  5
1561
100
AcDbEntity
  8
Bemassung
  6
ByLayer
 62
   256
370
                                                      -1
100
AcDbLine
 10
220.68076272405582
 20
52.00000000000001
 30
0.0
 11
232.07463809748091
 21
52.00000000000001
 31
0.0
  0
SOLID
  5
1562
100
AcDbEntity
  8
Bemassung
  6
ByLayer
 62
   256
370
                                                      -1
100
AcDbTrace
 10
230.82463809748091
 20
78
 30
0.0
 11
231.26545554925207
 21
75.5
 31
0.0
 12
230.38382064570976
 22
75.5
 32
0.0
 13
230.38382064570976
 23
75.5
 33
0.0
  0
SOLID
  5
1563
100
AcDbEntity
  8
Bemassung
  6
ByLayer
 62
   256
370
                                                      -1
100
AcDbTrace
 10
230.82463809748091
 20
52.00000000000001
 30
0.0
 11
230.38382064570976
 21
54.50000000000001
 31
0.0
 12
231.26545554925207
 22
54.50000000000001
 32
0.0
 13
231.26545554925207
 23
54.50000000000001
 33
0.0
  0
LINE
  5
1564
100
AcDbEntity
  8
Bemassung
  6
ByLayer
 62
   256
370
                                                      -1
100
AcDbLine
 10
230.82463809748091
 20
75.5
 30
0.0
 11
230.82463809748091
 21
54.50000000000001
 31
0.0
  0
ENDBLK
  5
BB0
330
BAE
100
AcDbEntity
  8
0
100
AcDbBlockEnd
  0
BLOCK
  5
BC3
330
BC2
100
AcDbEntity
  8
0
100
AcDbBlockBegin
  2
*D2745
 70
     0
 10
0
 20
0
 30
0.0
  3
*D2745
  1

  0
MTEXT
  5
1565
100
AcDbEntity
  8
Bemassung
  6
ByLayer
 62
   256
370
                                       -1
100
AcDbMText
 10
140
 20
12.291625
 30
0.0
 40
2.5
 41
0
 44
1
  1
2000
  7
Standard
 71
     5
 72
     5
 73
     1
 11
1
 21
0
 31
0.0
  0
LINE
  5
1566
100
AcDbEntity
  8
Bemassung
  6
ByLayer
 62
   256
370
                                       -1
100
AcDbLine
 10
19.999999999999993
 20
49.375
 30
0.0
 11
19.99999999999999
 21
8.75
 31
0.0
  0
LINE
  5
1567
100
AcDbEntity
  8
Bemassung
  6
ByLayer
 62
   256
370
                                       -1
100
AcDbLine
 10
260
 20
49.375
 30
0.0
 11
260
 21
8.75
 31
0.0
  0
SOLID
  5
1568
100
AcDbEntity
  8
Bemassung
  6
ByLayer
 62
   256
370
                                       -1
100
AcDbTrace
 10
19.99999999999999
 20
10
 30
0.0
 11
22.49999999999999
 21
10.440817451771162
 31
0.0
 12
22.49999999999999
 22
9.559182548228838
 32
0.0
 13
22.49999999999999
 23
9.559182548228838
 33
0.0
  0
SOLID
  5
1569
100
AcDbEntity
  8
Bemassung
  6
ByLayer
 62
   256
370
                                       -1
100
AcDbTrace
 10
260
 20
10
 30
0.0
 11
257.5
 21
9.559182548228836
 31
0.0
 12
257.5
 22
10.440817451771162
 32
0.0
 13
257.5
 23
10.440817451771162
 33
0.0
  0
LINE
  5
156A
100
AcDbEntity
  8
Bemassung
  6
ByLayer
 62
   256
370
                                       -1
100
AcDbLine
 10
22.49999999999999
 20
10
 30
0.0
 11
257.5
 21
10
 31
0.0
  0
ENDBLK
  5
BC4
330
BC2
100
AcDbEntity
  8
0
100
AcDbBlockEnd
  0
BLOCK
  5
CF8
330
CF7
100
AcDbEntity
  8
0
100
AcDbBlockBegin
  2
*D3318
 70
     0
 10
0
 20
0
 30
0.0
  3
*D3318
  1

  0
MTEXT
  5
156B
100
AcDbEntity
  8
Bemassung
  6
ByLayer
 62
   256
370
                              -1
100
AcDbMText
 10
6.708375
 20
65
 30
0.0
 40
2.5
 41
0
 44
1
  1
30
  7
Standard
 71
     5
 72
     5
 73
     1
 11
6.123233995736766e-17
 21
1
 31
0.0
  0
LINE
  5
156C
100
AcDbEntity
  8
Bemassung
  6
ByLayer
 62
   256
370
                              -1
100
AcDbLine
 10
19.374999999999993
 20
50
 30
0.0
 11
7.75
 21
50
 31
0.0
  0
LINE
  5
156D
100
AcDbEntity
  8
Bemassung
  6
ByLayer
 62
   256
370
                              -1
100
AcDbLine
 10
19.375
 20
79.99999999999999
 30
0.0
 11
7.750000000000002
 21
79.99999999999999
 31
0.0
  0
SOLID
  5
156E
100
AcDbEntity
  8
Bemassung
  6
ByLayer
 62
   256
370
                              -1
100
AcDbTrace
 10
9
 20
50
 30
0.0
 11
8.559182548228838
 21
52.5
 31
0.0
 12
9.440817451771162
 22
52.5
 32
0.0
 13
9.440817451771162
 23
52.5
 33
0.0
  0
SOLID
  5
156F
100
AcDbEntity
  8
Bemassung
  6
ByLayer
 62
   256
370
                              -1
100
AcDbTrace
 10
9.000000000000002
 20
79.99999999999999
 30
0.0
 11
9.440817451771164
 21
77.49999999999999
 31
0.0
 12
8.55918254822884
 22
77.49999999999999
 32
0.0
 13
8.55918254822884
 23
77.49999999999999
 33
0.0
  0
LINE
  5
1570
100
AcDbEntity
  8
Bemassung
  6
ByLayer
 62
   256
370
                              -1
100
AcDbLine
 10
9
 20
52.5
 30
0.0
 11
9.000000000000002
 21
77.49999999999999
 31
0.0
  0
ENDBLK
  5
CF9
330
CF7
100
AcDbEntity
  8
0
100
AcDbBlockEnd
  0
BLOCK
  5
D22
330
D21
100
AcDbEntity
  8
0
100
AcDbBlockBegin
  2
*D3360
 70
     0
 10
0
 20
0
 30
0.0
  3
*D3360
  1

  0
MTEXT
  5
1571
100
AcDbEntity
  8
Bemassung
  6
ByLayer
 62
   256
370
                              -1
100
AcDbMText
 10
85
 20
26.291625
 30
0.0
 40
2.5
 41
0
 44
1
  1
10
  7
Standard
 71
     5
 72
     5
 73
     1
 11
1
 21
0
 31
0.0
  0
LINE
  5
1572
100
AcDbEntity
  8
Bemassung
  6
ByLayer
 62
   256
370
                              -1
100
AcDbLine
 10
80
 20
49.375
 30
0.0
 11
80
 21
22.75
 31
0.0
  0
LINE
  5
1573
100
AcDbEntity
  8
Bemassung
  6
ByLayer
 62
   256
370
                              -1
100
AcDbLine
 10
90
 20
49.375
 30
0.0
 11
90
 21
22.75
 31
0.0
  0
SOLID
  5
1574
100
AcDbEntity
  8
Bemassung
  6
ByLayer
 62
   256
370
                              -1
100
AcDbTrace
 10
80
 20
24
 30
0.0
 11
82.5
 21
24.440817451771164
 31
0.0
 12
82.5
 22
23.559182548228836
 32
0.0
 13
82.5
 23
23.559182548228836
 33
0.0
  0
SOLID
  5
1575
100
AcDbEntity
  8
Bemassung
  6
ByLayer
 62
   256
370
                              -1
100
AcDbTrace
 10
90
 20
24
 30
0.0
 11
87.5
 21
23.559182548228836
 31
0.0
 12
87.5
 22
24.440817451771164
 32
0.0
 13
87.5
 23
24.440817451771164
 33
0.0
  0
LINE
  5
1576
100
AcDbEntity
  8
Bemassung
  6
ByLayer
 62
   256
370
                              -1
100
AcDbLine
 10
82.5
 20
24
 30
0.0
 11
87.5
 21
24
 31
0.0
  0
ENDBLK
  5
D23
330
D21
100
AcDbEntity
  8
0
100
AcDbBlockEnd
  0
BLOCK
  5
D37
330
D36
100
AcDbEntity
  8
0
100
AcDbBlockBegin
  2
*D3381
 70
     0
 10
0
 20
0
 30
0.0
  3
*D3381
  1

  0
MTEXT
  5
1577
100
AcDbEntity
  8
Bemassung
  6
ByLayer
 62
   256
370
                              -1
100
AcDbMText
 10
85
 20
24.291625
 30
0.0
 40
2.5
 41
0
 44
1
  1
10
  7
Standard
 71
     5
 72
     5
 73
     1
 11
1
 21
0
 31
0.0
  0
LINE
  5
1578
100
AcDbEntity
  8
Bemassung
  6
ByLayer
 62
   256
370
                              -1
100
AcDbLine
 10
80
 20
49.375
 30
0.0
 11
80
 21
20.75
 31
0.0
  0
LINE
  5
1579
100
AcDbEntity
  8
Bemassung
  6
ByLayer
 62
   256
370
                              -1
100
AcDbLine
 10
90
 20
49.375
 30
0.0
 11
90
 21
20.75
 31
0.0
  0
SOLID
  5
157A
100
AcDbEntity
  8
Bemassung
  6
ByLayer
 62
   256
370
                              -1
100
AcDbTrace
 10
80
 20
22
 30
0.0
 11
82.5
 21
22.440817451771164
 31
0.0
 12
82.5
 22
21.559182548228836
 32
0.0
 13
82.5
 23
21.559182548228836
 33
0.0
  0
SOLID
  5
157B
100
AcDbEntity
  8
Bemassung
  6
ByLayer
 62
   256
370
                              -1
100
AcDbTrace
 10
90
 20
22
 30
0.0
 11
87.5
 21
21.559182548228836
 31
0.0
 12
87.5
 22
22.440817451771164
 32
0.0
 13
87.5
 23
22.440817451771164
 33
0.0
  0
LINE
  5
157C
100
AcDbEntity
  8
Bemassung
  6
ByLayer
 62
   256
370
                              -1
100
AcDbLine
 10
82.5
 20
22
 30
0.0
 11
87.5
 21
22
 31
0.0
  0
ENDBLK
  5
D38
330
D36
100
AcDbEntity
  8
0
100
AcDbBlockEnd
  0
BLOCK
  5
E7D
330
E7C
100
AcDbEntity
  8
0
100
AcDbBlockBegin
  2
*D3339
 70
     0
 10
0
 20
0
 30
0.0
  3
*D3339
  1

  0
MTEXT
  5
157D
100
AcDbEntity
  8
Bemassung
  6
ByLayer
 62
   256
370
                              -1
100
AcDbMText
 10
7.708375000000001
 20
65
 30
0.0
 40
2.5
 41
0
 44
1
  1
 30
  7
Standard
 71
     5
 72
     5
 73
     1
 11
6.123233995736766e-17
 21
1
 31
0.0
  0
LINE
  5
157E
100
AcDbEntity
  8
Bemassung
  6
ByLayer
 62
   256
370
                              -1
100
AcDbLine
 10
19.374999999999993
 20
50
 30
0.0
 11
8.75
 21
50
 31
0.0
  0
LINE
  5
157F
100
AcDbEntity
  8
Bemassung
  6
ByLayer
 62
   256
370
                              -1
100
AcDbLine
 10
19.375
 20
79.99999999999999
 30
0.0
 11
8.750000000000002
 21
79.99999999999999
 31
0.0
  0
SOLID
  5
1580
100
AcDbEntity
  8
Bemassung
  6
ByLayer
 62
   256
370
                              -1
100
AcDbTrace
 10
10
 20
50
 30
0.0
 11
9.559182548228838
 21
52.5
 31
0.0
 12
10.440817451771162
 22
52.5
 32
0.0
 13
10.440817451771162
 23
52.5
 33
0.0
  0
SOLID
  5
1581
100
AcDbEntity
  8
Bemassung
  6
ByLayer
 62
   256
370
                              -1
100
AcDbTrace
 10
10.000000000000002
 20
79.99999999999999
 30
0.0
 11
10.440817451771164
 21
77.49999999999999
 31
0.0
 12
9.55918254822884
 22
77.49999999999999
 32
0.0
 13
9.55918254822884
 23
77.49999999999999
 33
0.0
  0
LINE
  5
1582
100
AcDbEntity
  8
Bemassung
  6
ByLayer
 62
   256
370
                              -1
100
AcDbLine
 10
10
 20
52.5
 30
0.0
 11
10.000000000000002
 21
77.49999999999999
 31
0.0
  0
ENDBLK
  5
E7E
330
E7C
100
AcDbEntity
  8
0
100
AcDbBlockEnd
  0
BLOCK
  5
E91
330
E90
100
AcDbEntity
  8
0
100
AcDbBlockBegin
  2
*D3402
 70
     0
 10
0
 20
0
 30
0.0
  3
*D3402
  1

  0
MTEXT
  5
1583
100
AcDbEntity
  8
Bemassung
  6
ByLayer
 62
   256
370
                              -1
100
AcDbMText
 10
85
 20
32.291625
 30
0.0
 40
2.5
 41
0
 44
1
  1
 8
  7
Standard
 71
     5
 72
     5
 73
     1
 11
1
 21
0
 31
0.0
  0
LINE
  5
1584
100
AcDbEntity
  8
Bemassung
  6
ByLayer
 62
   256
370
                              -1
100
AcDbLine
 10
80
 20
49.375
 30
0.0
 11
80
 21
28.75
 31
0.0
  0
LINE
  5
1585
100
AcDbEntity
  8
Bemassung
  6
ByLayer
 62
   256
370
                              -1
100
AcDbLine
 10
90
 20
49.375
 30
0.0
 11
90
 21
28.75
 31
0.0
  0
SOLID
  5
1586
100
AcDbEntity
  8
Bemassung
  6
ByLayer
 62
   256
370
                              -1
100
AcDbTrace
 10
80
 20
30
 30
0.0
 11
82.5
 21
30.440817451771164
 31
0.0
 12
82.5
 22
29.559182548228836
 32
0.0
 13
82.5
 23
29.559182548228836
 33
0.0
  0
SOLID
  5
1587
100
AcDbEntity
  8
Bemassung
  6
ByLayer
 62
   256
370
                              -1
100
AcDbTrace
 10
90
 20
30
 30
0.0
 11
87.5
 21
29.559182548228836
 31
0.0
 12
87.5
 22
30.440817451771164
 32
0.0
 13
87.5
 23
30.440817451771164
 33
0.0
  0
LINE
  5
1588
100
AcDbEntity
  8
Bemassung
  6
ByLayer
 62
   256
370
                              -1
100
AcDbLine
 10
82.5
 20
30
 30
0.0
 11
87.5
 21
30
 31
0.0
  0
ENDBLK
  5
E92
330
E90
100
AcDbEntity
  8
0
100
AcDbBlockEnd
  0
BLOCK
  5
EA5
330
EA4
100
AcDbEntity
  8
0
100
AcDbBlockBegin
  2
*D3423
 70
     0
 10
0
 20
0
 30
0.0
  3
*D3423
  1

  0
MTEXT
  5
1589
100
AcDbEntity
  8
Bemassung
  6
ByLayer
 62
   256
370
                              -1
100
AcDbMText
 10
269.708375
 20
65
 30
0.0
 40
2.5
 41
0
 44
1
  1
 60
  7
Standard
 71
     5
 72
     5
 73
     1
 11
6.123233995736766e-17
 21
1
 31
0.0
  0
LINE
  5
158A
100
AcDbEntity
  8
Bemassung
  6
ByLayer
 62
   256
370
                              -1
100
AcDbLine
 10
262.625
 20
35
 30
0.0
 11
273.25
 21
35
 31
0.0
  0
LINE
  5
158B
100
AcDbEntity
  8
Bemassung
  6
ByLayer
 62
   256
370
                              -1
100
AcDbLine
 10
262.625
 20
95
 30
0.0
 11
273.25
 21
95
 31
0.0
  0
SOLID
  5
158C
100
AcDbEntity
  8
Bemassung
  6
ByLayer
 62
   256
370
                              -1
100
AcDbTrace
 10
272
 20
35
 30
0.0
 11
271.5591825482288
 21
37.5
 31
0.0
 12
272.4408174517712
 22
37.5
 32
0.0
 13
272.4408174517712
 23
37.5
 33
0.0
  0
SOLID
  5
158D
100
AcDbEntity
  8
Bemassung
  6
ByLayer
 62
   256
370
                              -1
100
AcDbTrace
 10
272
 20
95
 30
0.0
 11
272.4408174517712
 21
92.5
 31
0.0
 12
271.5591825482288
 22
92.5
 32
0.0
 13
271.5591825482288
 23
92.5
 33
0.0
  0
LINE
  5
158E
100
AcDbEntity
  8
Bemassung
  6
ByLayer
 62
   256
370
                              -1
100
AcDbLine
 10
272
 20
37.5
 30
0.0
 11
272
 21
92.5
 31
0.0
  0
ENDBLK
  5
EA6
330
EA4
100
AcDbEntity
  8
0
100
AcDbBlockEnd
  0
BLOCK
  5
EB9
330
EB8
100
AcDbEntity
  8
0
100
AcDbBlockBegin
  2
*D3444
 70
     0
 10
0
 20
0
 30
0.0
  3
*D3444
  1

  0
MTEXT
  5
158F
100
AcDbEntity
  8
Bemassung
  6
ByLayer
 62
   256
370
                              -1
100
AcDbMText
 10
268.4583333333333
 20
105.291625
 30
0.0
 40
2.5
 41
0
 44
1
  1
2
  7
Standard
 71
     5
 72
     5
 73
     1
 11
1
 21
0
 31
0.0
  0
LINE
  5
1590
100
AcDbEntity
  8
Bemassung
  6
ByLayer
 62
   256
370
                              -1
100
AcDbLine
 10
260
 20
95.625
 30
0.0
 11
260
 21
104.25
 31
0.0
  0
LINE
  5
1591
100
AcDbEntity
  8
Bemassung
  6
ByLayer
 62
   256
370
                              -1
100
AcDbLine
 10
262
 20
95.625
 30
0.0
 11
262
 21
104.25
 31
0.0
  0
SOLID
  5
1592
100
AcDbEntity
  8
Bemassung
  6
ByLayer
 62
   256
370
                              -1
100
AcDbTrace
 10
260
 20
103
 30
0.0
 11
257.5
 21
102.55918254822883
 31
0.0
 12
257.5
 22
103.44081745177117
 32
0.0
 13
257.5
 23
103.44081745177117
 33
0.0
  0
SOLID
  5
1593
100
AcDbEntity
  8
Bemassung
  6
ByLayer
 62
   256
370
                              -1
100
AcDbTrace
 10
262
 20
103
 30
0.0
 11
264.5
 21
103.44081745177117
 31
0.0
 12
264.5
 22
102.55918254822883
 32
0.0
 13
264.5
 23
102.55918254822883
 33
0.0
  0
LINE
  5
1594
100
AcDbEntity
  8
Bemassung
  6
ByLayer
 62
   256
370
                              -1
100
AcDbLine
 10
260
 20
103
 30
0.0
 11
262
 21
103
 31
0.0
  0
LINE
  5
1595
100
AcDbEntity
  8
Bemassung
  6
ByLayer
 62
   256
370
                              -1
100
AcDbLine
 10
257.5
 20
103
 30
0.0
 11
255
 21
103
 31
0.0
  0
LINE
  5
1596
100
AcDbEntity
  8
Bemassung
  6
ByLayer
 62
   256
370
                              -1
100
AcDbLine
 10
264.5
 20
103
 30
0.0
 11
269.91666666666663
 21
103
 31
0.0
  0
ENDBLK
  5
EBA
330
EB8
100
AcDbEntity
  8
0
100
AcDbBlockEnd
  0
BLOCK
  5
ECD
330
ECC
100
AcDbEntity
  8
0
100
AcDbBlockBegin
  2
*D3465
 70
     0
 10
0
 20
0
 30
0.0
  3
*D3465
  1

  0
MTEXT
  5
1597
100
AcDbEntity
  8
Bemassung
  6
ByLayer
 62
   256
370
                              -1
100
AcDbMText
 10
219.708375
 20
65.00000000000001
 30
0.0
 40
2.5
 41
0
 44
1
  1
 26
  7
Standard
 71
     5
 72
     5
 73
     1
 11
6.123233995736766e-17
 21
1
 31
0.0
  0
LINE
  5
1598
100
AcDbEntity
  8
Bemassung
  6
ByLayer
 62
   256
370
                              -1
100
AcDbLine
 10
215.625
 20
52
 30
0.0
 11
223.25
 21
52
 31
0.0
  0
LINE
  5
1599
100
AcDbEntity
  8
Bemassung
  6
ByLayer
 62
   256
370
                              -1
100
AcDbLine
 10
215.625
 20
78.00000000000003
 30
0.0
 11
223.25
 21
78.00000000000003
 31
0.0
  0
SOLID
  5
159A
100
AcDbEntity
  8
Bemassung
  6
ByLayer
 62
   256
370
                              -1
100
AcDbTrace
 10
222
 20
52
 30
0.0
 11
221.55918254822885
 21
54.5
 31
0.0
 12
222.44081745177115
 22
54.5
 32
0.0
 13
222.44081745177115
 23
54.5
 33
0.0
  0
SOLID
  5
159B
100
AcDbEntity
  8
Bemassung
  6
ByLayer
 62
   256
370
                              -1
100
AcDbTrace
 10
222
 20
78.00000000000003
 30
0.0
 11
222.44081745177115
 21
75.50000000000003
 31
0.0
 12
221.55918254822885
 22
75.50000000000003
 32
0.0
 13
221.55918254822885
 23
75.50000000000003
 33
0.0
  0
LINE
  5
159C
100
AcDbEntity
  8
Bemassung
  6
ByLayer
 62
   256
370
                              -1
100
AcDbLine
 10
222
 20
54.5
 30
0.0
 11
222
 21
75.50000000000003
 31
0.0
  0
ENDBLK
  5
ECE
330
ECC
100
AcDbEntity
  8
0
100
AcDbBlockEnd
  0
BLOCK
  5
EE1
330
EE0
100
AcDbEntity
  8
0
100
AcDbBlockBegin
  2
*D3486
 70
     0
 10
0
 20
0
 30
0.0
  3
*D3486
  1

  0
MTEXT
  5
159D
100
AcDbEntity
  8
Bemassung
  6
ByLayer
 62
   256
370
                              -1
100
AcDbMText
 10
140
 20
12.291625
 30
0.0
 40
2.5
 41
0
 44
1
  1
2000
  7
Standard
 71
     5
 72
     5
 73
     1
 11
1
 21
0
 31
0.0
  0
LINE
  5
159E
100
AcDbEntity
  8
Bemassung
  6
ByLayer
 62
   256
370
                              -1
100
AcDbLine
 10
19.999999999999993
 20
49.375
 30
0.0
 11
19.99999999999999
 21
8.75
 31
0.0
  0
LINE
  5
159F
100
AcDbEntity
  8
Bemassung
  6
ByLayer
 62
   256
370
                              -1
100
AcDbLine
 10
260
 20
49.375
 30
0.0
 11
260
 21
8.75
 31
0.0
  0
SOLID
  5
15A0
100
AcDbEntity
  8
Bemassung
  6
ByLayer
 62
   256
370
                              -1
100
AcDbTrace
 10
19.99999999999999
 20
10
 30
0.0
 11
22.49999999999999
 21
10.440817451771162
 31
0.0
 12
22.49999999999999
 22
9.559182548228838
 32
0.0
 13
22.49999999999999
 23
9.559182548228838
 33
0.0
  0
SOLID
  5
15A1
100
AcDbEntity
  8
Bemassung
  6
ByLayer
 62
   256
370
                              -1
100
AcDbTrace
 10
260
 20
10
 30
0.0
 11
257.5
 21
9.559182548228836
 31
0.0
 12
257.5
 22
10.440817451771162
 32
0.0
 13
257.5
 23
10.440817451771162
 33
0.0
  0
LINE
  5
15A2
100
AcDbEntity
  8
Bemassung
  6
ByLayer
 62
   256
370
                              -1
100
AcDbLine
 10
22.49999999999999
 20
10
 30
0.0
 11
257.5
 21
10
 31
0.0
  0
ENDBLK
  5
EE2
330
EE0
100
AcDbEntity
  8
0
100
AcDbBlockEnd
  0
ENDSEC
  0
SECTION
  2
ENTITIES
  0
LWPOLYLINE
  5
1E2
100
AcDbEntity
  8
Sichtbare Körperkanten
  6
ByLayer
 62
   256
370
                                                               -1
100
AcDbPolyline
 90
     4
 70
     1
 43
0
 10
20
 20
50
 42
0
 10
80
 20
50
 42
0
 10
80
 20
52
 42
0
 10
20
 20
52
 42
0
1001
ACAD
1002
{
1000
0
1000
biiCADo_Rectangle
1000
10
1040
20
1000
20
1040
50
1000
45
1040
0
1000
46
1040
60
1000
47
1040
2
1000
91
1070
0
1000
51
1040
0
1000
49
1040
0
1000
50
1040
0
1002
}
  0
POINT
  5
28B
100
AcDbEntity
  8
0
  6
ByLayer
 62
   256
370
                                                               -1
100
AcDbPoint
 10
222.53916453435647
 20
72.95370079798867
 30
0.0
  0
POINT
  5
28C
100
AcDbEntity
  8
0
  6
ByLayer
 62
   256
370
                                                               -1
100
AcDbPoint
 10
222.53916453435647
 20
72.95370079798867
 30
0.0
  0
POINT
  5
28D
100
AcDbEntity
  8
0
  6
ByLayer
 62
   256
370
                                                               -1
100
AcDbPoint
 10
224.30382316495928
 20
66.32440242251101
 30
0.0
  0
LINE
  5
2AB
100
AcDbEntity
  8
Sichtbare Körperkanten
  6
ByLayer
 62
   256
370
                                                               -1
100
AcDbLine
 10
20
 20
80
 30
0.0
 11
20
 21
50
 31
0.0
  0
LINE
  5
2AC
100
AcDbEntity
  8
Sichtbare Körperkanten
  6
ByLayer
 62
   256
370
                                                               -1
100
AcDbLine
 10
20
 20
50
 30
0.0
 11
20
 21
50
 31
0.0
  0
LWPOLYLINE
  5
44E
100
AcDbEntity
  8
Sichtbare Körperkanten
  6
ByLayer
 62
   256
370
                                                         -1
100
AcDbPolyline
 90
     4
 70
     1
 43
0
 10
20
 20
80
 42
0
 10
20
 20
78
 42
0
 10
150
 20
77.99999999999994
 42
0
 10
150
 20
79.99999999999997
 42
0
1001
ACAD
1002
{
1000
0
1000
biiCADo_Rectangle
1000
10
1040
20
1000
20
1040
80
1000
45
1040
270
1000
46
1040
2
1000
47
1040
130
1000
91
1070
0
1000
51
1040
0
1000
49
1040
0
1000
50
1040
0
1002
}
  0
LWPOLYLINE
  5
44F
100
AcDbEntity
  8
Sichtbare Körperkanten
  6
ByLayer
 62
   256
370
                                                         -1
100
AcDbPolyline
 90
     4
 70
     1
 43
0
 10
170
 20
50
 42
0
 10
260
 20
50
 42
0
 10
260
 20
52
 42
0
 10
170
 20
52
 42
0
1001
ACAD
1002
{
1000
0
1000
biiCADo_Rectangle
1000
10
1040
170
1000
20
1040
50
1000
45
1040
0
1000
46
1040
90
1000
47
1040
2
1000
91
1070
0
1000
51
1040
0
1000
49
1040
0
1000
50
1040
0
1002
}
  0
LWPOLYLINE
  5
450
100
AcDbEntity
  8
Sichtbare Körperkanten
  6
ByLayer
 62
   256
370
                                                         -1
100
AcDbPolyline
 90
     4
 70
     1
 43
0
 10
170
 20
80
 42
0
 10
170
 20
78
 42
0
 10
260
 20
78.00000000000004
 42
0
 10
260
 20
79.99999999999997
 42
0
1001
ACAD
1002
{
1000
0
1000
biiCADo_Rectangle
1000
10
1040
170
1000
20
1040
80
1000
45
1040
270
1000
46
1040
2
1000
47
1040
90
1000
91
1070
0
1000
51
1040
0
1000
49
1040
0
1000
50
1040
0
1002
}
  0
LWPOLYLINE
  5
452
100
AcDbEntity
  8
Sichtbare Körperkanten
  6
ByLayer
 62
   256
370
                                                         -1
100
AcDbPolyline
 90
     4
 70
     1
 43
0
 10
260
 20
35
 42
0
 10
262
 20
35
 42
0
 10
262
 20
95
 42
0
 10
260
 20
95
 42
0
1001
ACAD
1002
{
1000
0
1000
biiCADo_Rectangle
1000
10
1040
260
1000
20
1040
35
1000
45
1040
0
1000
46
1040
2
1000
47
1040
60
1000
91
1070
0
1000
51
1040
0
1000
49
1040
0
1000
50
1040
0
1002
}
  0
LINE
  5
58D
100
AcDbEntity
  8
Bemassung
  6
ByLayer
 62
   256
370
                                                      -1
100
AcDbLine
 10
150
 20
83
 30
0.0
 11
150
 21
75
 31
0.0
  0
LINE
  5
599
100
AcDbEntity
  8
Bemassung
  6
ByLayer
 62
   256
370
                                                      -1
100
AcDbLine
 10
150
 20
57
 30
0.0
 11
150
 21
46
 31
0.0
  0
LINE
  5
59B
100
AcDbEntity
  8
Bemassung
  6
ByLayer
 62
   256
370
                                                      -1
100
AcDbLine
 10
170
 20
83
 30
0.0
 11
170
 21
65
 31
0.0
  0
LINE
  5
59C
100
AcDbEntity
  8
Bemassung
  6
ByLayer
 62
   256
370
                                                      -1
100
AcDbLine
 10
170
 20
65
 30
0.0
 11
173
 21
63
 31
0.0
  0
LINE
  5
59D
100
AcDbEntity
  8
Bemassung
  6
ByLayer
 62
   256
370
                                                      -1
100
AcDbLine
 10
173
 20
63
 30
0.0
 11
167
 21
59
 31
0.0
  0
LINE
  5
59E
100
AcDbEntity
  8
Bemassung
  6
ByLayer
 62
   256
370
                                                      -1
100
AcDbLine
 10
167
 20
59
 30
0.0
 11
170
 21
57
 31
0.0
  0
LINE
  5
59F
100
AcDbEntity
  8
Bemassung
  6
ByLayer
 62
   256
370
                                                      -1
100
AcDbLine
 10
170
 20
57
 30
0.0
 11
170
 21
46
 31
0.0
  0
HATCH
  5
6A2
100
AcDbEntity
  8
Bemassung
  6
ByLayer
 62
   256
370
                                                   -1
100
AcDbHatch
 10
0
 20
0
 210
0
 220
0
 230
1
  2
ANSI37
 70
     0
 71
     0
 91
       1
 92
       1
 93
       4
 72
     1
 10
260
 20
35
 11
262
 21
35
 72
     1
 10
262
 20
35
 11
262
 21
95
 72
     1
 10
262
 20
95
 11
260
 21
95
 72
     1
 10
260
 20
95
 11
260
 21
35
 97
       0
 75
     0
 76
     1
 52
0
 41
1
 77
     0
 78
     2
 53
45
 43
0
 44
0
 45
-2.245064030267288
 46
2.2450640302672884
 79
     0
 53
135
 43
0
 44
0
 45
-2.2450640302672884
 46
-2.245064030267288
 79
     0
 98
     1
 10
0
 20
0
  0
LINE
  5
6A3
100
AcDbEntity
  8
Bemassung
  6
ByLayer
 62
   256
370
                                                   -1
100
AcDbLine
 10
150
 20
75
 30
0.0
 11
153
 21
73
 31
0.0
  0
LINE
  5
6A4
100
AcDbEntity
  8
Bemassung
  6
ByLayer
 62
   256
370
                                                   -1
100
AcDbLine
 10
153
 20
73
 30
0.0
 11
147
 21
69
 31
0.0
  0
LINE
  5
6A5
100
AcDbEntity
  8
Bemassung
  6
ByLayer
 62
   256
370
                                                   -1
100
AcDbLine
 10
147
 20
69
 30
0.0
 11
150
 21
67
 31
0.0
  0
LINE
  5
6A6
100
AcDbEntity
  8
Bemassung
  6
ByLayer
 62
   256
370
                                                   -1
100
AcDbLine
 10
150
 20
67
 30
0.0
 11
150
 21
57
 31
0.0
  0
LWPOLYLINE
  5
8AB
100
AcDbEntity
  8
Sichtbare Körperkanten
  6
ByLayer
 62
   256
370
                                             -1
100
AcDbPolyline
 90
     4
 70
     1
 43
0
 10
90
 20
50
 42
0
 10
150
 20
50
 42
0
 10
150
 20
52
 42
0
 10
90
 20
52
 42
0
1001
ACAD
1002
{
1000
0
1000
biiCADo_Rectangle
1000
10
1040
90
1000
20
1040
50
1000
45
1040
0
1000
46
1040
60
1000
47
1040
2
1000
91
1070
0
1000
51
1040
0
1000
49
1040
0
1000
50
1040
0
1002
}
  0
HATCH
  5
8B4
100
AcDbEntity
  8
Bemassung
  6
ByLayer
 62
   256
370
                                             -1
100
AcDbHatch
 10
0
 20
0
 210
0
 220
0
 230
1
  2
ANSI31
 70
     0
 71
     0
 91
       5
 92
       1
 93
       4
 72
     1
 10
20
 20
50
 11
80
 21
50
 72
     1
 10
80
 20
50
 11
80
 21
52
 72
     1
 10
80
 20
52
 11
20
 21
52
 72
     1
 10
20
 20
52
 11
20
 21
50
 97
       0
 92
       1
 93
       4
 72
     1
 10
20
 20
80
 11
20
 21
78
 72
     1
 10
20
 20
78
 11
150
 21
77.99999999999994
 72
     1
 10
150
 20
77.99999999999994
 11
150
 21
79.99999999999997
 72
     1
 10
150
 20
79.99999999999997
 11
20
 21
80
 97
       0
 92
       1
 93
       4
 72
     1
 10
170
 20
50
 11
260
 21
50
 72
     1
 10
260
 20
50
 11
260
 21
52
 72
     1
 10
260
 20
52
 11
170
 21
52
 72
     1
 10
170
 20
52
 11
170
 21
50
 97
       0
 92
       1
 93
       4
 72
     1
 10
170
 20
80
 11
170
 21
78
 72
     1
 10
170
 20
78
 11
260
 21
78.00000000000004
 72
     1
 10
260
 20
78.00000000000004
 11
260
 21
79.99999999999997
 72
     1
 10
260
 20
79.99999999999997
 11
170
 21
80
 97
       0
 92
       1
 93
       4
 72
     1
 10
90
 20
50
 11
150
 21
50
 72
     1
 10
150
 20
50
 11
150
 21
52
 72
     1
 10
150
 20
52
 11
90
 21
52
 72
     1
 10
90
 20
52
 11
90
 21
50
 97
       0
 75
     0
 76
     1
 52
0
 41
1
 77
     0
 78
     1
 53
45
 43
0
 44
0
 45
-2.245064030267288
 46
2.2450640302672884
 79
     0
 98
     1
 10
0
 20
0
  0
LINE
  5
FBC
100
AcDbEntity
  8
Sichtbare Körperkanten
  6
ByLayer
 62
   256
370
                        -1
100
AcDbLine
 10
80
 20
52
 30
0.0
 11
90
 21
52.00000000000001
 31
0.0
  0
LINE
  5
FBD
100
AcDbEntity
  8
Sichtbare Körperkanten
  6
ByLayer
 62
   256
370
                        -1
100
AcDbLine
 10
90
 20
52.00000000000001
 30
0.0
 11
90
 21
50
 31
0.0
  0
LINE
  5
FBE
100
AcDbEntity
  8
Sichtbare Körperkanten
  6
ByLayer
 62
   256
370
                        -1
100
AcDbLine
 10
90
 20
50
 30
0.0
 11
80
 21
50
 31
0.0
  0
LINE
  5
1094
100
AcDbEntity
  8
Sichtbare Körperkanten
  6
ByLayer
 62
   256
370
                     -1
100
AcDbLine
 10
80
 20
50
 30
0.0
 11
73
 21
50
 31
0.0
  0
LINE
  5
109A
100
AcDbEntity
  8
Sichtbare Körperkanten
  6
ByLayer
 62
   256
370
                     -1
100
AcDbLine
 10
97
 20
50
 30
0.0
 11
73
 21
50
 31
0.0
  0
HATCH
  5
109B
100
AcDbEntity
  8
Bemassung
  6
ByLayer
 62
   256
370
                     -1
100
AcDbHatch
 10
0
 20
0
 210
0
 220
0
 230
1
  2
ANSI31
 70
     0
 71
     0
 91
       0
 75
     0
 76
     1
 52
90
 41
1
 77
     0
 78
     1
 53
135
 43
0
 44
0
 45
-2.2450640302672884
 46
-2.245064030267288
 79
     0
 98
     1
 10
0
 20
0
  0
LWPOLYLINE
  5
109F
100
AcDbEntity
  8
Sichtbare Körperkanten
  6
ByLayer
 62
   256
370
                     -1
100
AcDbPolyline
 90
     4
 70
     1
 43
0
 10
118.7828173317606
 20
79.99999999999997
 42
0
 10
138.7828173317606
 20
79.99999999999997
 42
0
 10
138.7828173317606
 20
86.99999999999997
 42
0
 10
118.7828173317606
 20
86.99999999999997
 42
0
1001
ACAD
1002
{
1000
0
1000
biiCADo_Rectangle
1000
10
1040
118.7828173317606
1000
20
1040
79.99999999999997
1000
45
1040
0
1000
46
1040
20.000000000000014
1000
47
1040
7
1000
91
1070
0
1000
51
1040
0
1000
49
1040
0
1000
50
1040
0
1002
}
  0
LWPOLYLINE
  5
10A8
100
AcDbEntity
  8
Sichtbare Körperkanten
  6
ByLayer
 62
   256
370
                     -1
100
AcDbPolyline
 90
     4
 70
     1
 43
0
 10
119
 20
43
 42
0
 10
139
 20
43
 42
0
 10
139
 20
50
 42
0
 10
119
 20
50
 42
0
1001
ACAD
1002
{
1000
0
1000
biiCADo_Rectangle
1000
10
1040
119
1000
20
1040
43
1000
45
1040
0
1000
46
1040
20
1000
47
1040
7
1000
91
1070
0
1000
51
1040
0
1000
49
1040
0
1000
50
1040
0
1002
}
  0
HATCH
  5
10A9
100
AcDbEntity
  8
Bemassung
  6
ByLayer
 62
   256
370
                     -1
100
AcDbHatch
 10
0
 20
0
 210
0
 220
0
 230
1
  2
ANSI31
 70
     0
 71
     0
 91
       2
 92
       1
 93
       4
 72
     1
 10
118.7828173317606
 20
79.99999999999997
 11
138.7828173317606
 21
79.99999999999997
 72
     1
 10
138.7828173317606
 20
79.99999999999997
 11
138.7828173317606
 21
86.99999999999997
 72
     1
 10
138.7828173317606
 20
86.99999999999997
 11
118.7828173317606
 21
86.99999999999997
 72
     1
 10
118.7828173317606
 20
86.99999999999997
 11
118.7828173317606
 21
79.99999999999997
 97
       0
 92
       1
 93
       4
 72
     1
 10
119
 20
43
 11
139
 21
43
 72
     1
 10
139
 20
43
 11
139
 21
50
 72
     1
 10
139
 20
50
 11
119
 21
50
 72
     1
 10
119
 20
50
 11
119
 21
43
 97
       0
 75
     0
 76
     1
 52
90
 41
1
 77
     0
 78
     1
 53
135
 43
0
 44
0
 45
-2.2450640302672884
 46
-2.245064030267288
 79
     0
 98
     1
 10
0
 20
0
  0
LWPOLYLINE
  5
1174
100
AcDbEntity
  8
Sichtbare Körperkanten
  6
ByLayer
 62
   256
370
                  -1
100
AcDbPolyline
 90
     4
 70
     1
 43
0
 10
135
 20
93
 42
0
 10
123
 20
93
 42
0
 10
123
 20
87
 42
0
 10
135
 20
87
 42
0
1001
ACAD
1002
{
1000
0
1000
biiCADo_Rectangle
1000
10
1040
135
1000
20
1040
93
1000
45
1040
180
1000
46
1040
12
1000
47
1040
6
1000
91
1070
0
1000
51
1040
0
1000
49
1040
0
1000
50
1040
0
1002
}
  0
LWPOLYLINE
  5
1175
100
AcDbEntity
  8
Sichtbare Körperkanten
  6
ByLayer
 62
   256
370
                  -1
100
AcDbPolyline
 90
     4
 70
     1
 43
0
 10
133
 20
108
 42
0
 10
125
 20
108
 42
0
 10
125
 20
93
 42
0
 10
133
 20
93
 42
0
1001
ACAD
1002
{
1000
0
1000
biiCADo_Rectangle
1000
10
1040
133
1000
20
1040
108
1000
45
1040
180
1000
46
1040
8
1000
47
1040
15
1000
91
1070
0
1000
51
1040
0
1000
49
1040
0
1000
50
1040
0
1002
}
  0
LWPOLYLINE
  5
117F
100
AcDbEntity
  8
Sichtbare Körperkanten
  6
ByLayer
 62
   256
370
                  -1
100
AcDbPolyline
 90
     4
 70
     1
 43
0
 10
135
 20
110
 42
0
 10
123
 20
110
 42
0
 10
123
 20
108
 42
0
 10
135
 20
108
 42
0
1001
ACAD
1002
{
1000
0
1000
biiCADo_Rectangle
1000
10
1040
135
1000
20
1040
110
1000
45
1040
180
1000
46
1040
12
1000
47
1040
2
1000
91
1070
0
1000
51
1040
0
1000
49
1040
0
1000
50
1040
0
1002
}
  0
LWPOLYLINE
  5
1180
100
AcDbEntity
  8
Sichtbare Körperkanten
  6
ByLayer
 62
   256
370
                  -1
100
AcDbPolyline
 90
     4
 70
     1
 43
0
 10
135
 20
114
 42
0
 10
123
 20
114
 42
0
 10
123
 20
110
 42
0
 10
135
 20
110
 42
0
1001
ACAD
1002
{
1000
0
1000
biiCADo_Rectangle
1000
10
1040
135
1000
20
1040
114
1000
45
1040
180
1000
46
1040
12
1000
47
1040
4
1000
91
1070
0
1000
51
1040
0
1000
49
1040
0
1000
50
1040
0
1002
}
  0
HATCH
  5
1181
100
AcDbEntity
  8
Bemassung
  6
ByLayer
 62
   256
370
                  -1
100
AcDbHatch
 10
0
 20
0
 210
0
 220
0
 230
1
  2
ANSI31
 70
     0
 71
     0
 91
       1
 92
       1
 93
       4
 72
     1
 10
135
 20
110
 11
123
 21
110
 72
     1
 10
123
 20
110
 11
123
 21
108
 72
     1
 10
123
 20
108
 11
135
 21
108
 72
     1
 10
135
 20
108
 11
135
 21
110
 97
       0
 75
     0
 76
     1
 52
0
 41
1
 77
     0
 78
     1
 53
45
 43
0
 44
0
 45
-2.245064030267288
 46
2.2450640302672884
 79
     0
 98
     1
 10
0
 20
0
  0
HATCH
  5
1182
100
AcDbEntity
  8
Bemassung
  6
ByLayer
 62
   256
370
                  -1
100
AcDbHatch
 10
0
 20
0
 210
0
 220
0
 230
1
  2
ANSI31
 70
     0
 71
     0
 91
       1
 92
       1
 93
       4
 72
     1
 10
135
 20
93
 11
123
 21
93
 72
     1
 10
123
 20
93
 11
123
 21
87
 72
     1
 10
123
 20
87
 11
135
 21
87
 72
     1
 10
135
 20
87
 11
135
 21
93
 97
       0
 75
     0
 76
     1
 52
0
 41
1
 77
     0
 78
     1
 53
45
 43
0
 44
0
 45
-2.245064030267288
 46
2.2450640302672884
 79
     0
 98
     1
 10
0
 20
0
  0
HATCH
  5
1183
100
AcDbEntity
  8
Bemassung
  6
ByLayer
 62
   256
370
                  -1
100
AcDbHatch
 10
0
 20
0
 210
0
 220
0
 230
1
  2
ANSI31
 70
     0
 71
     0
 91
       1
 92
       1
 93
       4
 72
     1
 10
133
 20
108
 11
125
 21
108
 72
     1
 10
125
 20
108
 11
125
 21
93
 72
     1
 10
125
 20
93
 11
133
 21
93
 72
     1
 10
133
 20
93
 11
133
 21
108
 97
       0
 75
     0
 76
     1
 52
90
 41
1
 77
     0
 78
     1
 53
135
 43
0
 44
0
 45
-2.2450640302672884
 46
-2.245064030267288
 79
     0
 98
     1
 10
0
 20
0
  0
LWPOLYLINE
  5
1184
100
AcDbEntity
  8
Sichtbare Körperkanten
  6
ByLayer
 62
   256
370
                  -1
100
AcDbPolyline
 90
     4
 70
     1
 43
0
 10
20
 20
95
 42
0
 10
18
 20
95
 42
0
 10
17.999999999999986
 20
35
 42
0
 10
19.99999999999999
 20
35
 42
0
1001
ACAD
1002
{
1000
0
1000
biiCADo_Rectangle
1000
10
1040
20
1000
20
1040
95
1000
45
1040
180
1000
46
1040
2
1000
47
1040
60
1000
91
1070
0
1000
51
1040
0
1000
49
1040
0
1000
50
1040
0
1002
}
  0
HATCH
  5
1185
100
AcDbEntity
  8
Bemassung
  6
ByLayer
 62
   256
370
                  -1
100
AcDbHatch
 10
0
 20
0
 210
0
 220
0
 230
1
  2
ANSI37
 70
     0
 71
     0
 91
       1
 92
       1
 93
       4
 72
     1
 10
20
 20
95
 11
18
 21
95
 72
     1
 10
18
 20
95
 11
17.999999999999986
 21
35
 72
     1
 10
17.999999999999986
 20
35
 11
19.99999999999999
 21
35
 72
     1
 10
19.99999999999999
 20
35
 11
20
 21
95
 97
       0
 75
     0
 76
     1
 52
0
 41
1
 77
     0
 78
     2
 53
45
 43
0
 44
0
 45
-2.245064030267288
 46
2.2450640302672884
 79
     0
 53
135
 43
0
 44
0
 45
-2.2450640302672884
 46
-2.245064030267288
 79
     0
 98
     1
 10
0
 20
0
  0
LWPOLYLINE
  5
1186
100
AcDbEntity
  8
Sichtbare Körperkanten
  6
ByLayer
 62
   256
370
                  -1
100
AcDbPolyline
 90
     4
 70
     1
 43
0
 10
226
 20
87
 42
0
 10
206
 20
87
 42
0
 10
206
 20
80.00000000000001
 42
0
 10
226
 20
80
 42
0
1001
ACAD
1002
{
1000
0
1000
biiCADo_Rectangle
1000
10
1040
226
1000
20
1040
87
1000
45
1040
180
1000
46
1040
20
1000
47
1040
7
1000
91
1070
0
1000
51
1040
0
1000
49
1040
0
1000
50
1040
0
1002
}
  0
LWPOLYLINE
  5
1187
100
AcDbEntity
  8
Sichtbare Körperkanten
  6
ByLayer
 62
   256
370
                  -1
100
AcDbPolyline
 90
     4
 70
     1
 43
0
 10
222
 20
93
 42
0
 10
210
 20
93
 42
0
 10
210
 20
87
 42
0
 10
222
 20
87
 42
0
1001
ACAD
1002
{
1000
0
1000
biiCADo_Rectangle
1000
10
1040
222
1000
20
1040
93
1000
45
1040
180
1000
46
1040
12
1000
47
1040
6
1000
91
1070
0
1000
51
1040
0
1000
49
1040
0
1000
50
1040
0
1002
}
  0
LWPOLYLINE
  5
1189
100
AcDbEntity
  8
Sichtbare Körperkanten
  6
ByLayer
 62
   256
370
                  -1
100
AcDbPolyline
 90
     4
 70
     1
 43
0
 10
220
 20
108
 42
0
 10
212
 20
108
 42
0
 10
212
 20
93
 42
0
 10
220
 20
93
 42
0
1001
ACAD
1002
{
1000
0
1000
biiCADo_Rectangle
1000
10
1040
220
1000
20
1040
108
1000
45
1040
180
1000
46
1040
8
1000
47
1040
15
1000
91
1070
0
1000
51
1040
0
1000
49
1040
0
1000
50
1040
0
1002
}
  0
HATCH
  5
118B
100
AcDbEntity
  8
Bemassung
  6
ByLayer
 62
   256
370
                  -1
100
AcDbHatch
 10
0
 20
0
 210
0
 220
0
 230
1
  2
ANSI31
 70
     0
 71
     0
 91
       1
 92
       1
 93
       4
 72
     1
 10
222
 20
93
 11
210
 21
93
 72
     1
 10
210
 20
93
 11
210
 21
87
 72
     1
 10
210
 20
87
 11
222
 21
87
 72
     1
 10
222
 20
87
 11
222
 21
93
 97
       0
 75
     0
 76
     1
 52
0
 41
1
 77
     0
 78
     1
 53
45
 43
0
 44
0
 45
-2.245064030267288
 46
2.2450640302672884
 79
     0
 98
     1
 10
0
 20
0
  0
HATCH
  5
118C
100
AcDbEntity
  8
Bemassung
  6
ByLayer
 62
   256
370
                  -1
100
AcDbHatch
 10
0
 20
0
 210
0
 220
0
 230
1
  2
ANSI31
 70
     0
 71
     0
 91
       1
 92
       1
 93
       4
 72
     1
 10
226
 20
87
 11
206
 21
87
 72
     1
 10
206
 20
87
 11
206
 21
80.00000000000001
 72
     1
 10
206
 20
80.00000000000001
 11
226
 21
80
 72
     1
 10
226
 20
80
 11
226
 21
87
 97
       0
 75
     0
 76
     1
 52
90
 41
1
 77
     0
 78
     1
 53
135
 43
0
 44
0
 45
-2.2450640302672884
 46
-2.245064030267288
 79
     0
 98
     1
 10
0
 20
0
  0
HATCH
  5
118D
100
AcDbEntity
  8
Bemassung
  6
ByLayer
 62
   256
370
                  -1
100
AcDbHatch
 10
0
 20
0
 210
0
 220
0
 230
1
  2
ANSI31
 70
     0
 71
     0
 91
       1
 92
       1
 93
       4
 72
     1
 10
220
 20
108
 11
212
 21
108
 72
     1
 10
212
 20
108
 11
212
 21
93
 72
     1
 10
212
 20
93
 11
220
 21
93
 72
     1
 10
220
 20
93
 11
220
 21
108
 97
       0
 75
     0
 76
     1
 52
90
 41
1
 77
     0
 78
     1
 53
135
 43
0
 44
0
 45
-2.2450640302672884
 46
-2.245064030267288
 79
     0
 98
     1
 10
0
 20
0
  0
HATCH
  5
11A9
100
AcDbEntity
  8
Sichtbare Körperkanten
  6
ByLayer
 62
   256
370
                  -1
100
AcDbHatch
 10
0
 20
0
 210
0
 220
0
 230
1
  2
ANSI31
 70
     0
 71
     0
 91
       0
 75
     0
 76
     1
 52
0
 41
1
 77
     0
 78
     1
 53
45
 43
0
 44
0
 45
-2.245064030267288
 46
2.2450640302672884
 79
     0
 98
     1
 10
0
 20
0
  0
LINE
  5
11AA
100
AcDbEntity
  8
Sichtbare Körperkanten
  6
ByLayer
 62
   256
370
                  -1
100
AcDbLine
 10
222
 20
108
 30
0.0
 11
222
 21
114
 31
0.0
  0
LINE
  5
11AB
100
AcDbEntity
  8
Sichtbare Körperkanten
  6
ByLayer
 62
   256
370
                  -1
100
AcDbLine
 10
222
 20
114
 30
0.0
 11
217
 21
114
 31
0.0
  0
LINE
  5
11AC
100
AcDbEntity
  8
Sichtbare Körperkanten
  6
ByLayer
 62
   256
370
                  -1
100
AcDbLine
 10
217
 20
114
 30
0.0
 11
217
 21
110
 31
0.0
  0
LINE
  5
11AD
100
AcDbEntity
  8
Sichtbare Körperkanten
  6
ByLayer
 62
   256
370
                  -1
100
AcDbLine
 10
217
 20
110
 30
0.0
 11
215
 21
110
 31
0.0
  0
LINE
  5
11AE
100
AcDbEntity
  8
Sichtbare Körperkanten
  6
ByLayer
 62
   256
370
                  -1
100
AcDbLine
 10
215
 20
110
 30
0.0
 11
215
 21
114
 31
0.0
  0
LINE
  5
11AF
100
AcDbEntity
  8
Sichtbare Körperkanten
  6
ByLayer
 62
   256
370
                  -1
100
AcDbLine
 10
215
 20
114
 30
0.0
 11
210
 21
114
 31
0.0
  0
LINE
  5
11B1
100
AcDbEntity
  8
Sichtbare Körperkanten
  6
ByLayer
 62
   256
370
                  -1
100
AcDbLine
 10
210
 20
114
 30
0.0
 11
210
 21
108
 31
0.0
  0
LINE
  5
11B2
100
AcDbEntity
  8
Sichtbare Körperkanten
  6
ByLayer
 62
   256
370
                  -1
100
AcDbLine
 10
210
 20
108
 30
0.0
 11
222
 21
108
 31
0.0
  0
HATCH
  5
11B3
100
AcDbEntity
  8
Bemassung
  6
ByLayer
 62
   256
370
                  -1
100
AcDbHatch
 10
0
 20
0
 210
0
 220
0
 230
1
  2
ANSI31
 70
     0
 71
     0
 91
       1
 92
       1
 93
       8
 72
     1
 10
222
 20
108
 11
222
 21
114
 72
     1
 10
222
 20
114
 11
217
 21
114
 72
     1
 10
217
 20
114
 11
217
 21
110
 72
     1
 10
217
 20
110
 11
215
 21
110
 72
     1
 10
215
 20
110
 11
215
 21
114
 72
     1
 10
215
 20
114
 11
210
 21
114
 72
     1
 10
210
 20
114
 11
210
 21
108
 72
     1
 10
210
 20
108
 11
222
 21
108
 97
       0
 75
     0
 76
     1
 52
0
 41
1
 77
     0
 78
     1
 53
45
 43
0
 44
0
 45
-2.245064030267288
 46
2.2450640302672884
 79
     0
 98
     1
 10
0
 20
0
  0
LWPOLYLINE
  5
11B4
100
AcDbEntity
  8
Sichtbare Körperkanten
  6
ByLayer
 62
   256
370
                  -1
100
AcDbPolyline
 90
     4
 70
     1
 43
0
 10
217
 20
124
 42
0
 10
215
 20
124
 42
0
 10
215
 20
110
 42
0
 10
217
 20
110
 42
0
1001
ACAD
1002
{
1000
0
1000
biiCADo_Rectangle
1000
10
1040
217
1000
20
1040
124
1000
45
1040
180
1000
46
1040
2
1000
47
1040
14
1000
91
1070
0
1000
51
1040
0
1000
49
1040
0
1000
50
1040
0
1002
}
  0
HATCH
  5
11B5
100
AcDbEntity
  8
Bemassung
  6
ByLayer
 62
   256
370
                  -1
100
AcDbHatch
 10
0
 20
0
 210
0
 220
0
 230
1
  2
ANSI31
 70
     0
 71
     0
 91
       1
 92
       1
 93
       4
 72
     1
 10
217
 20
124
 11
215
 21
124
 72
     1
 10
215
 20
124
 11
215
 21
110
 72
     1
 10
215
 20
110
 11
217
 21
110
 72
     1
 10
217
 20
110
 11
217
 21
124
 97
       0
 75
     0
 76
     1
 52
90
 41
1
 77
     0
 78
     1
 53
135
 43
0
 44
0
 45
-2.2450640302672884
 46
-2.245064030267288
 79
     0
 98
     1
 10
0
 20
0
  0
TEXT
  5
11C3
100
AcDbEntity
  8
Sichtbare Körperkanten
  6
ByLayer
 62
   256
370
                  -1
100
AcDbText
 10
60
 20
20
 30
0.0
 40
2.5
  1
zur Vakuumpumpe 
 50
0
 51
0
  7
Standard
 41
1
 71
     0
 72
     0
 11
60
 21
20
 31
0.0
100
AcDbText
 73
     0
  0
LWPOLYLINE
  5
1354
100
AcDbEntity
  8
Sichtbare Körperkanten
  6
ByLayer
 62
   256
370
            -1
100
AcDbPolyline
 90
     4
 70
     1
 43
0
 10
206
 20
43
 42
0
 10
226
 20
43
 42
0
 10
226
 20
50
 42
0
 10
206
 20
50
 42
0
1001
ACAD
1002
{
1000
0
1000
biiCADo_Rectangle
1000
10
1040
206
1000
20
1040
43
1000
45
1040
0
1000
46
1040
20
1000
47
1040
7
1000
91
1070
0
1000
51
1040
0
1000
49
1040
0
1000
50
1040
0
1002
}
  0
HATCH
  5
1355
100
AcDbEntity
  8
Bemassung
  6
ByLayer
 62
   256
370
            -1
100
AcDbHatch
 10
0
 20
0
 210
0
 220
0
 230
1
  2
ANSI31
 70
     0
 71
     0
 91
       1
 92
       1
 93
       4
 72
     1
 10
206
 20
43
 11
226
 21
43
 72
     1
 10
226
 20
43
 11
226
 21
50
 72
     1
 10
226
 20
50
 11
206
 21
50
 72
     1
 10
206
 20
50
 11
206
 21
43
 97
       0
 75
     0
 76
     1
 52
90
 41
1
 77
     0
 78
     1
 53
135
 43
0
 44
0
 45
-2.2450640302672884
 46
-2.245064030267288
 79
     0
 98
     1
 10
0
 20
0
  0
TEXT
  5
141E
100
AcDbEntity
  8
Sichtbare Körperkanten
  6
ByLayer
 62
   256
370
         -1
100
AcDbText
 10
30
 20
154
 30
0.0
 40
5
  1
Zusammenbauzeichnung: Rohr mit Ventil,
 50
0
 51
0
  7
Standard
 41
1
 71
     0
 72
     0
 11
30
 21
154
 31
0.0
100
AcDbText
 73
     0
  0
LWPOLYLINE
  5
15B5
100
AcDbEntity
  8
Sichtbare Körperkanten
  6
ByLayer
 62
   256
370
   -1
100
AcDbPolyline
 90
     4
 70
     1
 43
0
 10
23
 20
53
 42
0
 10
63
 20
53
 42
0
 10
63
 20
77
 42
0
 10
23
 20
77
 42
0
1001
ACAD
1002
{
1000
0
1000
biiCADo_Rectangle
1000
10
1040
23
1000
20
1040
53
1000
45
1040
0
1000
46
1040
40
1000
47
1040
24
1000
91
1070
0
1000
51
1040
0
1000
49
1040
0
1000
50
1040
0
1002
}
  0
ARC
  5
15B6
100
AcDbEntity
  8
Sichtbare Körperkanten
  6
ByLayer
 62
   256
370
   -1
100
AcDbCircle
 10
60.800000000000004
 20
65.00000000000001
 30
0.0
 40
12.199999999999985
100
AcDbArc
 50
280.3888578154696
 51
79.6111421845304
  0
TEXT
  5
15B7
100
AcDbEntity
  8
Sichtbare Körperkanten
  6
ByLayer
 62
   256
370
   -1
100
AcDbText
 10
30
 20
138
 30
0.0
 40
5
  1
Kimme und Korn, Plastikscheiben und Geschoss
 50
0
 51
0
  7
Standard
 41
1
 71
     0
 72
     0
 11
30
 21
138
 31
0.0
100
AcDbText
 73
     0
  0
LWPOLYLINE
  5
15BC
100
AcDbEntity
  8
Sichtbare Körperkanten
  6
ByLayer
 62
   256
370
   -1
100
AcDbPolyline
 90
     4
 70
     1
 43
0
 10
84
 20
47
 42
0
 10
86
 20
47
 42
0
 10
86
 20
50
 42
0
 10
84
 20
50
 42
0
1001
ACAD
1002
{
1000
0
1000
biiCADo_Rectangle
1000
10
1040
84
1000
20
1040
47
1000
45
1040
0
1000
46
1040
2
1000
47
1040
3
1000
91
1070
0
1000
51
1040
0
1000
49
1040
0
1000
50
1040
0
1002
}
  0
HATCH
  5
15BD
100
AcDbEntity
  8
Sichtbare Körperkanten
  6
ByLayer
 62
   256
370
   -1
100
AcDbHatch
 10
0
 20
0
 210
0
 220
0
 230
1
  2
SOLID
 70
     0
 71
     0
 91
       1
 92
       1
 93
       4
 72
     1
 10
84
 20
47
 11
86
 21
47
 72
     1
 10
86
 20
47
 11
86
 21
50
 72
     1
 10
86
 20
50
 11
84
 21
50
 72
     1
 10
84
 20
50
 11
84
 21
47
 97
       0
 75
     0
 76
     1
 98
     1
 10
0
 20
0
  0
LINE
  5
15BE
100
AcDbEntity
  8
Sichtbare Körperkanten
  6
ByLayer
 62
   256
370
   -1
100
AcDbLine
 10
81
 20
47
 30
0.0
 11
89
 21
47
 31
0.0
  0
LINE
  5
15BF
100
AcDbEntity
  8
Sichtbare Körperkanten
  6
ByLayer
 62
   256
370
   -1
100
AcDbLine
 10
89
 20
47
 30
0.0
 11
85
 21
38
 31
0.0
  0
LINE
  5
15C0
100
AcDbEntity
  8
Sichtbare Körperkanten
  6
ByLayer
 62
   256
370
   -1
100
AcDbLine
 10
85
 20
38
 30
0.0
 11
81
 21
47
 31
0.0
  0
HATCH
  5
15C1
100
AcDbEntity
  8
Sichtbare Körperkanten
  6
ByLayer
 62
   256
370
   -1
100
AcDbHatch
 10
0
 20
0
 210
0
 220
0
 230
1
  2
SOLID
 70
     0
 71
     0
 91
       1
 92
       1
 93
       3
 72
     1
 10
81
 20
47
 11
89
 21
47
 72
     1
 10
89
 20
47
 11
85
 21
38
 72
     1
 10
85
 20
38
 11
81
 21
47
 97
       0
 75
     0
 76
     1
 98
     1
 10
0
 20
0
  0
LINE
  5
15C2
100
AcDbEntity
  8
Sichtbare Körperkanten
  6
ByLayer
 62
   256
370
   -1
100
AcDbLine
 10
81
 20
29
 30
0.0
 11
89
 21
29
 31
0.0
  0
LINE
  5
15C3
100
AcDbEntity
  8
Sichtbare Körperkanten
  6
ByLayer
 62
   256
370
   -1
100
AcDbLine
 10
89
 20
29
 30
0.0
 11
85
 21
38
 31
0.0
  0
LINE
  5
15C4
100
AcDbEntity
  8
Sichtbare Körperkanten
  6
ByLayer
 62
   256
370
   -1
100
AcDbLine
 10
85
 20
38
 30
0.0
 11
81
 21
29
 31
0.0
  0
HATCH
  5
15C5
100
AcDbEntity
  8
Sichtbare Körperkanten
  6
ByLayer
 62
   256
370
   -1
100
AcDbHatch
 10
0
 20
0
 210
0
 220
0
 230
1
  2
SOLID
 70
     0
 71
     0
 91
       1
 92
       1
 93
       3
 72
     1
 10
81
 20
29
 11
89
 21
29
 72
     1
 10
89
 20
29
 11
85
 21
38
 72
     1
 10
85
 20
38
 11
81
 21
29
 97
       0
 75
     0
 76
     1
 98
     1
 10
0
 20
0
  0
LWPOLYLINE
  5
15C6
100
AcDbEntity
  8
Sichtbare Körperkanten
  6
ByLayer
 62
   256
370
   -1
100
AcDbPolyline
 90
     4
 70
     1
 43
0
 10
84
 20
26
 42
0
 10
86
 20
26
 42
0
 10
86
 20
29
 42
0
 10
84
 20
29
 42
0
1001
ACAD
1002
{
1000
0
1000
biiCADo_Rectangle
1000
10
1040
84
1000
20
1040
26
1000
45
1040
0
1000
46
1040
2
1000
47
1040
3
1000
91
1070
0
1000
51
1040
0
1000
49
1040
0
1000
50
1040
0
1002
}
  0
HATCH
  5
15C7
100
AcDbEntity
  8
Sichtbare Körperkanten
  6
ByLayer
 62
   256
370
   -1
100
AcDbHatch
 10
0
 20
0
 210
0
 220
0
 230
1
  2
SOLID
 70
     0
 71
     0
 91
       1
 92
       1
 93
       4
 72
     1
 10
84
 20
26
 11
86
 21
26
 72
     1
 10
86
 20
26
 11
86
 21
29
 72
     1
 10
86
 20
29
 11
84
 21
29
 72
     1
 10
84
 20
29
 11
84
 21
26
 97
       0
 75
     0
 76
     1
 98
     1
 10
0
 20
0
  0
LWPOLYLINE
  5
15C8
100
AcDbEntity
  8
Sichtbare Körperkanten
  6
ByLayer
 62
   256
370
   -1
100
AcDbPolyline
 90
     4
 70
     1
 43
0
 10
94
 20
37
 42
0
 10
94
 20
39
 42
0
 10
85
 20
39
 42
0
 10
85
 20
37
 42
0
1001
ACAD
1002
{
1000
0
1000
biiCADo_Rectangle
1000
10
1040
94
1000
20
1040
37
1000
45
1040
90
1000
46
1040
2
1000
47
1040
9
1000
91
1070
0
1000
51
1040
0
1000
49
1040
0
1000
50
1040
0
1002
}
  0
LWPOLYLINE
  5
15C9
100
AcDbEntity
  8
Sichtbare Körperkanten
  6
ByLayer
 62
   256
370
   -1
100
AcDbPolyline
 90
     4
 70
     1
 43
0
 10
94
 20
34
 42
0
 10
96
 20
34
 42
0
 10
96
 20
42
 42
0
 10
94
 20
42
 42
0
1001
ACAD
1002
{
1000
0
1000
biiCADo_Rectangle
1000
10
1040
94
1000
20
1040
34
1000
45
1040
0
1000
46
1040
2
1000
47
1040
8
1000
91
1070
0
1000
51
1040
0
1000
49
1040
0
1000
50
1040
0
1002
}
  0
HATCH
  5
15CB
100
AcDbEntity
  8
Sichtbare Körperkanten
  6
ByLayer
 62
   256
370
   -1
100
AcDbHatch
 10
0
 20
0
 210
0
 220
0
 230
1
  2
SOLID
 70
     0
 71
     0
 91
       1
 92
       1
 93
       4
 72
     1
 10
94
 20
37
 11
94
 21
39
 72
     1
 10
94
 20
39
 11
85
 21
39
 72
     1
 10
85
 20
39
 11
85
 21
37
 72
     1
 10
85
 20
37
 11
94
 21
37
 97
       0
 75
     0
 76
     1
 98
     1
 10
0
 20
0
  0
HATCH
  5
15CC
100
AcDbEntity
  8
Sichtbare Körperkanten
  6
ByLayer
 62
   256
370
   -1
100
AcDbHatch
 10
0
 20
0
 210
0
 220
0
 230
1
  2
SOLID
 70
     0
 71
     0
 91
       1
 92
       1
 93
       4
 72
     1
 10
94
 20
34
 11
96
 21
34
 72
     1
 10
96
 20
34
 11
96
 21
42
 72
     1
 10
96
 20
42
 11
94
 21
42
 72
     1
 10
94
 20
42
 11
94
 21
34
 97
       0
 75
     0
 76
     1
 98
     1
 10
0
 20
0
  0
ENDSEC
  0
SECTION
  2
OBJECTS
  0
DICTIONARY
  5
15A3
330
0
100
AcDbDictionary
281
     1
  3
ACAD_COLOR
350
15A4
  3
ACAD_GROUP
350
D
  3
ACAD_LAYOUT
350
14E0
  3
ACAD_MATERIAL
350
15A5
  3
ACAD_MLINESTYLE
350
17
  3
ACAD_PLOTSETTINGS
350
15A7
  3
ACAD_PLOTSTYLENAME
350
15A8
  3
AcDbVariableDictionary
350
15AA
  0
DICTIONARY
  5
15A4
102
{ACAD_REACTORS
330
15A3
102
}
330
15A3
100
AcDbDictionary
281
     1
  0
DICTIONARY
  5
D
102
{ACAD_REACTORS
330
15A3
102
}
330
15A3
100
AcDbDictionary
281
     1
  0
DICTIONARY
  5
14E0
102
{ACAD_REACTORS
330
15A3
102
}
330
15A3
100
AcDbDictionary
281
     1
  3
Layout1
350
51
  3
Layout2
350
56
  3
Model
350
22
  0
DICTIONARY
  5
15A5
102
{ACAD_REACTORS
330
15A3
102
}
330
15A3
100
AcDbDictionary
281
     1
  0
DICTIONARY
  5
17
102
{ACAD_REACTORS
330
15A3
102
}
330
15A3
100
AcDbDictionary
281
     1
  3
STANDARD
350
15A6
  0
DICTIONARY
  5
15A7
102
{ACAD_REACTORS
330
15A3
102
}
330
15A3
100
AcDbDictionary
281
     1
  0
ACDBDICTIONARYWDFLT
  5
15A8
102
{ACAD_REACTORS
330
15A3
102
}
330
15A3
100
AcDbDictionary
281
     1
  3
Normal
350
15AE
100
AcDbDictionaryWithDefault
340
15AE
  0
DICTIONARY
  5
15AA
102
{ACAD_REACTORS
330
15A3
102
}
330
15A3
100
AcDbDictionary
281
     1
  3
DIMASSOC
350
15AB
  3
HIDETEXT
350
15AC
  3
PROJECTNAME
350
15AD
  0
LAYOUT
  5
51
102
{ACAD_REACTORS
330
14E0
102
}
330
14E0
100
AcDbPlotSettings
  1

  2
None
  4

  6

 40
0
 41
0
 42
0
 43
0
 44
0
 45
0
 46
0.0
 47
0.0
 48
0.0
 49
0.0
140
0.0
141
0.0
142
1.0
143
1.0
 70
   688
 72
     0
 73
     0
 74
     5
  7

 75
    16
147
1.0
148
0.0
149
0.0
100
AcDbLayout
  1
Layout1
 70
     1
 71
     0
 10
0
 20
0
 11
0
 21
0
 12
0.0
 22
0.0
 32
0.0
 14
0.0
 24
0.0
 34
0.0
 15
0.0
 25
0.0
 35
0.0
146
0.0
 13
0.0
 23
0.0
 33
0.0
 16
1.0
 26
0.0
 36
0.0
 17
0.0
 27
1.0
 37
0.0
 76
     0
330
50
  0
LAYOUT
  5
56
102
{ACAD_REACTORS
330
14E0
102
}
330
14E0
100
AcDbPlotSettings
  1

  2
None
  4

  6

 40
0
 41
0
 42
0
 43
0
 44
0
 45
0
 46
0.0
 47
0.0
 48
0.0
 49
0.0
140
0.0
141
0.0
142
1.0
143
1.0
 70
   688
 72
     0
 73
     0
 74
     5
  7

 75
    16
147
1.0
148
0.0
149
0.0
100
AcDbLayout
  1
Layout2
 70
     1
 71
     1
 10
0
 20
0
 11
0
 21
0
 12
0.0
 22
0.0
 32
0.0
 14
0.0
 24
0.0
 34
0.0
 15
0.0
 25
0.0
 35
0.0
146
0.0
 13
0.0
 23
0.0
 33
0.0
 16
1.0
 26
0.0
 36
0.0
 17
0.0
 27
1.0
 37
0.0
 76
     0
330
55
  0
LAYOUT
  5
22
102
{ACAD_REACTORS
330
14E0
102
}
330
14E0
100
AcDbPlotSettings
  1

  2
none_device
  4
ANSI_A_(8.50_x_11.00_Inches)
  6

 40
6.349999904632567
 41
19.04999923706055
 42
6.350006103515625
 43
19.04998779296875
 44
215.8999938964844
 45
279.3999938964844
 46
0.0
 47
0.0
 48
0.0
 49
0.0
140
0.0
141
0.0
142
1.0
143
1.0
 70
   688
 72
     0
 73
     1
 74
     5
  7

 75
    16
147
1.0
148
0.0
149
0.0
100
AcDbLayout
  1
Model
 70
     1
 71
     2
 10
-19.04998779296875
 20
-6.349999904632567
 11
260.3500061035156
 21
209.54999399185184
 12
0.0
 22
0.0
 32
0.0
 14
0.0
 24
0.0
 34
0.0
 15
0.0
 25
0.0
 35
0.0
146
0.0
 13
0.0
 23
0.0
 33
0.0
 16
1.0
 26
0.0
 36
0.0
 17
0.0
 27
1.0
 37
0.0
 76
     0
330
1F
  0
MLINESTYLE
  5
15A6
102
{ACAD_REACTORS
330
17
102
}
330
17
100
AcDbMlineStyle
  2
STANDARD
 70
     0
  3

 62
   256
 51
90.0
 52
90.0
 71
     2
 49
0.5
 62
   256
  6
BYLAYER
 49
-0.5
 62
   256
  6
BYLAYER
  0
ACDBPLACEHOLDER
  5
15AE
102
{ACAD_REACTORS
330
15AE
102
}
330
15AE
  0
DICTIONARYVAR
  5
15AB
102
{ACAD_REACTORS
330
15AA
102
}
330
15AA
100
DictionaryVariables
280
     0
  1
2
  0
DICTIONARYVAR
  5
15AC
102
{ACAD_REACTORS
330
15AA
102
}
330
15AA
100
DictionaryVariables
280
     0
  1
1
  0
DICTIONARYVAR
  5
15AD
102
{ACAD_REACTORS
330
15AA
102
}
330
15AA
100
DictionaryVariables
280
     0
  1

  0
ENDSEC
  0
EOF